ISO-10303-21;
HEADER;
FILE_DESCRIPTION (( 'STEP AP203' ),
    '1' );
FILE_NAME ('969427.step',
    '2021-11-30T14:02:10',
    ( '' ),
    ( '' ),
    'SwSTEP 2.0',
    'SolidWorks 2019',
    '' );
FILE_SCHEMA (( 'CONFIG_CONTROL_DESIGN' ));
ENDSEC;

DATA;
#1 = PLANE ( 'NONE',  #179 ) ;
#2 = FACE_BOUND ( 'NONE', #213, .T. ) ;
#3 = CC_DESIGN_APPROVAL ( #232, ( #161 ) ) ;
#4 = CALENDAR_DATE ( 2021, 30, 11 ) ;
#5 = MECHANICAL_CONTEXT ( 'NONE', #178, 'mechanical' ) ;
#6 = ORIENTED_EDGE ( 'NONE', *, *, #10, .F. ) ;
#7 = PLANE ( 'NONE',  #54 ) ;
#8 = ADVANCED_FACE ( 'NONE', ( #180 ), #7, .F. ) ;
#9 = ORGANIZATION ( 'UNSPECIFIED', 'UNSPECIFIED', '' ) ;
#10 = EDGE_CURVE ( 'NONE', #143, #143, #172, .T. ) ;
#11 = LOCAL_TIME ( 15, 2, 10.00000000000000000, #45 ) ;
#12 = DIRECTION ( 'NONE',  ( 0.0000000000000000000, 1.000000000000000000, 0.0000000000000000000 ) ) ;
#13 = DIRECTION ( 'NONE',  ( -3.491481338843133355E-15, 1.224646799147353207E-16, -1.000000000000000000 ) ) ;
#14 = CARTESIAN_POINT ( 'NONE',  ( 6.982962677686266711E-14, -2.449293598294706513E-15, 20.00000000000000000 ) ) ;
#15 = ADVANCED_FACE ( 'NONE', ( #125, #107 ), #184, .T. ) ;
#16 = PLANE ( 'NONE',  #103 ) ;
#17 = DIRECTION ( 'NONE',  ( 0.0000000000000000000, 1.000000000000000000, 0.0000000000000000000 ) ) ;
#18 = ORIENTED_EDGE ( 'NONE', *, *, #162, .F. ) ;
#19 = APPROVAL ( #41, 'UNSPECIFIED' ) ;
#20 = DIRECTION ( 'NONE',  ( 1.000000000000000000, 0.0000000000000000000, 0.0000000000000000000 ) ) ;
#21 = COORDINATED_UNIVERSAL_TIME_OFFSET ( 1, 0, .AHEAD. ) ;
#22 = CARTESIAN_POINT ( 'NONE',  ( 6.982962677686266711E-14, 1.844000000000000083, 20.00000000000000000 ) ) ;
#23 = ORIENTED_EDGE ( 'NONE', *, *, #10, .T. ) ;
#24 = EDGE_CURVE ( 'NONE', #209, #209, #84, .T. ) ;
#25 = APPROVAL_DATE_TIME ( #61, #217 ) ;
#26 = ORIENTED_EDGE ( 'NONE', *, *, #162, .T. ) ;
#27 = DATE_TIME_ROLE ( 'classification_date' ) ;
#28 = AXIS2_PLACEMENT_3D ( 'NONE', #120, #138, #20 ) ;
#29 = CC_DESIGN_PERSON_AND_ORGANIZATION_ASSIGNMENT ( #229, #57, ( #239 ) ) ;
#30 = CARTESIAN_POINT ( 'NONE',  ( 0.0000000000000000000, 0.0000000000000000000, 0.0000000000000000000 ) ) ;
#31 = ADVANCED_FACE ( 'NONE', ( #35, #56 ), #39, .T. ) ;
#32 = CIRCLE ( 'NONE', #68, 1.499999999999999778 ) ;
#33 = CLOSED_SHELL ( 'NONE', ( #8, #91, #31, #47, #206 ) ) ;
#34 = DIRECTION ( 'NONE',  ( 3.491481338843133355E-15, -1.224646799147353207E-16, 1.000000000000000000 ) ) ;
#35 = FACE_OUTER_BOUND ( 'NONE', #98, .T. ) ;
#36 = CONICAL_SURFACE ( 'NONE', #48, 1.843999999999997863, 0.7853981633974432830 ) ;
#37 = DIRECTION ( 'NONE',  ( -3.491481338843133355E-15, 1.224646799147353207E-16, -1.000000000000000000 ) ) ;
#38 = CARTESIAN_POINT ( 'NONE',  ( 7.190994031382162037E-14, -2.522261174718982377E-15, 20.59582547780371087 ) ) ;
#39 = CYLINDRICAL_SURFACE ( 'NONE', #115, 1.499999999999997780 ) ;
#40 = EDGE_LOOP ( 'NONE', ( #212 ) ) ;
#41 = APPROVAL_STATUS ( 'not_yet_approved' ) ;
#42 = CC_DESIGN_APPROVAL ( #217, ( #233 ) ) ;
#43 = DIRECTION ( 'NONE',  ( 3.491481338843133355E-15, -1.224646799147353207E-16, 1.000000000000000000 ) ) ;
#44 = EDGE_LOOP ( 'NONE', ( #18 ) ) ;
#45 = COORDINATED_UNIVERSAL_TIME_OFFSET ( 1, 0, .AHEAD. ) ;
#46 = COORDINATED_UNIVERSAL_TIME_OFFSET ( 1, 0, .AHEAD. ) ;
#47 = ADVANCED_FACE ( 'NONE', ( #187, #2 ), #131, .T. ) ;
#48 = AXIS2_PLACEMENT_3D ( 'NONE', #207, #34, #117 ) ;
#49 = DIRECTION ( 'NONE',  ( -3.491481338843133355E-15, 1.224646799147353207E-16, -1.000000000000000000 ) ) ;
#50 = CARTESIAN_POINT ( 'NONE',  ( 6.982962677686266711E-14, 1.844000000000000083, 20.00000000000000000 ) ) ;
#51 = FACE_OUTER_BOUND ( 'NONE', #64, .T. ) ;
#52 = AXIS2_PLACEMENT_3D ( 'NONE', #14, #13, #210 ) ;
#53 = FACE_OUTER_BOUND ( 'NONE', #40, .T. ) ;
#54 = AXIS2_PLACEMENT_3D ( 'NONE', #105, #43, #119 ) ;
#55 = CC_DESIGN_PERSON_AND_ORGANIZATION_ASSIGNMENT ( #230, #124, ( #70 ) ) ;
#56 = FACE_OUTER_BOUND ( 'NONE', #156, .T. ) ;
#57 = PERSON_AND_ORGANIZATION_ROLE ( 'design_owner' ) ;
#58 = ORIENTED_EDGE ( 'NONE', *, *, #73, .F. ) ;
#59 = CARTESIAN_POINT ( 'NONE',  ( 1.944755105735625216E-13, 1.499999999999993117, 55.70000000000000284 ) ) ;
#60 = APPROVAL_PERSON_ORGANIZATION ( #173, #19, #99 ) ;
#61 = DATE_AND_TIME ( #63, #204 ) ;
#62 = EDGE_LOOP ( 'NONE', ( #26 ) ) ;
#63 = CALENDAR_DATE ( 2021, 30, 11 ) ;
#64 = EDGE_LOOP ( 'NONE', ( #85 ) ) ;
#65 = PERSON_AND_ORGANIZATION ( #175, #9 ) ;
#66 = ORIENTED_EDGE ( 'NONE', *, *, #86, .F. ) ;
#67 = DATE_TIME_ROLE ( 'creation_date' ) ;
#68 = AXIS2_PLACEMENT_3D ( 'NONE', #71, #222, #12 ) ;
#69 = AXIS2_PLACEMENT_3D ( 'NONE', #30, #160, #185 ) ;
#70 = PRODUCT_DEFINITION ( 'UNKNOWN', '', #161, #241 ) ;
#71 = CARTESIAN_POINT ( 'NONE',  ( 1.944755105735625216E-13, -6.821282671250756903E-15, 55.70000000000000284 ) ) ;
#72 = CARTESIAN_POINT ( 'NONE',  ( 1.955229549752154679E-13, -6.858022075225178552E-15, 56.00000000000000000 ) ) ;
#73 = EDGE_CURVE ( 'NONE', #221, #221, #195, .T. ) ;
#74 = CARTESIAN_POINT ( 'NONE',  ( -1.515101835996715357E-31, 5.314261867000110134E-33, -4.339424126776884698E-17 ) ) ;
#75 = FACE_OUTER_BOUND ( 'NONE', #123, .T. ) ;
#76 =( GEOMETRIC_REPRESENTATION_CONTEXT ( 3 ) GLOBAL_UNCERTAINTY_ASSIGNED_CONTEXT ( ( #108 ) ) GLOBAL_UNIT_ASSIGNED_CONTEXT ( ( #134, #78, #215 ) ) REPRESENTATION_CONTEXT ( 'NONE', 'WORKASPACE' ) );
#77 = DIRECTION ( 'NONE',  ( -4.275831445896958607E-31, -1.000000000000000000, -1.224646799147353207E-16 ) ) ;
#78 =( NAMED_UNIT ( * ) PLANE_ANGLE_UNIT ( ) SI_UNIT ( $, .RADIAN. ) );
#79 = APPROVAL_ROLE ( '' ) ;
#80 = VERTEX_POINT ( 'NONE', #59 ) ;
#81 = CC_DESIGN_SECURITY_CLASSIFICATION ( #233, ( #161 ) ) ;
#82 = CALENDAR_DATE ( 2021, 30, 11 ) ;
#83 = ORIENTED_EDGE ( 'NONE', *, *, #148, .T. ) ;
#84 = CIRCLE ( 'NONE', #238, 1.594000000000000306 ) ;
#85 = ORIENTED_EDGE ( 'NONE', *, *, #86, .T. ) ;
#86 = EDGE_CURVE ( 'NONE', #92, #92, #158, .T. ) ;
#87 = PERSON_AND_ORGANIZATION_ROLE ( 'creator' ) ;
#88 = AXIS2_PLACEMENT_3D ( 'NONE', #223, #208, #17 ) ;
#89 = AXIS2_PLACEMENT_3D ( 'NONE', #38, #94, #96 ) ;
#90 = CLOSED_SHELL ( 'NONE', ( #170, #110, #15, #214 ) ) ;
#91 = ADVANCED_FACE ( 'NONE', ( #240, #205 ), #169, .T. ) ;
#92 = VERTEX_POINT ( 'NONE', #163 ) ;
#93 = EDGE_LOOP ( 'NONE', ( #216 ) ) ;
#94 = DIRECTION ( 'NONE',  ( -3.491481338843133355E-15, 1.224646799147353207E-16, -1.000000000000000000 ) ) ;
#95 = CARTESIAN_POINT ( 'NONE',  ( 1.955229549752154679E-13, 8.998558695971043013E-33, 56.00000000000000000 ) ) ;
#96 = DIRECTION ( 'NONE',  ( 0.0000000000000000000, 1.000000000000000000, 0.0000000000000000000 ) ) ;
#97 = DIRECTION ( 'NONE',  ( 4.275831445896958607E-31, 1.000000000000000000, 1.224646799147353207E-16 ) ) ;
#98 = EDGE_LOOP ( 'NONE', ( #202 ) ) ;
#99 = APPROVAL_ROLE ( '' ) ;
#100 = APPROVAL_DATE_TIME ( #157, #19 ) ;
#101 = CALENDAR_DATE ( 2021, 30, 11 ) ;
#102 = CARTESIAN_POINT ( 'NONE',  ( 1.955229549752154679E-13, -6.858022075225178552E-15, 56.00000000000000000 ) ) ;
#103 = AXIS2_PLACEMENT_3D ( 'NONE', #191, #225, #150 ) ;
#104 = PERSON_AND_ORGANIZATION ( #175, #9 ) ;
#105 = CARTESIAN_POINT ( 'NONE',  ( 6.982962677686266711E-14, 1.382778519614231094E-32, 20.00000000000000000 ) ) ;
#106 = DATE_AND_TIME ( #154, #226 ) ;
#107 = FACE_OUTER_BOUND ( 'NONE', #155, .T. ) ;
#108 = UNCERTAINTY_MEASURE_WITH_UNIT (LENGTH_MEASURE( 1.000000000000000082E-05 ), #134, 'distance_accuracy_value', 'NONE');
#109 = MANIFOLD_SOLID_BREP ( 'Corps-Déplacer/Copier1[1]', #33 ) ;
#110 = ADVANCED_FACE ( 'NONE', ( #133, #51 ), #36, .T. ) ;
#111 = CARTESIAN_POINT ( 'NONE',  ( 6.982962677686266711E-14, -2.449293598294706513E-15, 20.00000000000000000 ) ) ;
#112 = DIRECTION ( 'NONE',  ( 0.0000000000000000000, 1.000000000000000000, 0.0000000000000000000 ) ) ;
#113 = AXIS2_PLACEMENT_3D ( 'NONE', #168, #116, #189 ) ;
#114 = DIRECTION ( 'NONE',  ( 3.491481338843133355E-15, -1.224646799147353207E-16, 1.000000000000000000 ) ) ;
#115 = AXIS2_PLACEMENT_3D ( 'NONE', #146, #128, #165 ) ;
#116 = DIRECTION ( 'NONE',  ( -3.491481338843133355E-15, 1.224646799147353207E-16, -1.000000000000000000 ) ) ;
#117 = DIRECTION ( 'NONE',  ( -4.177722222098130544E-31, -1.000000000000000000, -1.175924265168661328E-16 ) ) ;
#118 = DATE_AND_TIME ( #4, #126 ) ;
#119 = DIRECTION ( 'NONE',  ( -4.275831445896958607E-31, -1.000000000000000000, -1.224646799147353207E-16 ) ) ;
#120 = CARTESIAN_POINT ( 'NONE',  ( 0.0000000000000000000, 0.0000000000000000000, 0.0000000000000000000 ) ) ;
#121 = SHAPE_DEFINITION_REPRESENTATION ( #142, #220 ) ;
#122 = SECURITY_CLASSIFICATION_LEVEL ( 'unclassified' ) ;
#123 = EDGE_LOOP ( 'NONE', ( #58 ) ) ;
#124 = PERSON_AND_ORGANIZATION_ROLE ( 'creator' ) ;
#125 = FACE_OUTER_BOUND ( 'NONE', #200, .T. ) ;
#126 = LOCAL_TIME ( 15, 2, 10.00000000000000000, #46 ) ;
#127 = CC_DESIGN_PERSON_AND_ORGANIZATION_ASSIGNMENT ( #176, #181, ( #161 ) ) ;
#128 = DIRECTION ( 'NONE',  ( -3.491481338843133355E-15, 1.224646799147353207E-16, -1.000000000000000000 ) ) ;
#129 = CARTESIAN_POINT ( 'NONE',  ( 7.190994031382162037E-14, 1.499999999999993339, 20.59582547780371087 ) ) ;
#130 = DIRECTION ( 'NONE',  ( -3.491481338843133355E-15, 1.224646799147353207E-16, -1.000000000000000000 ) ) ;
#131 = CONICAL_SURFACE ( 'NONE', #153, 1.200000000000000178, 0.7853981633974450594 ) ;
#132 = CARTESIAN_POINT ( 'NONE',  ( 1.955229549752154679E-13, 1.199999999999993072, 56.00000000000000000 ) ) ;
#133 = FACE_BOUND ( 'NONE', #93, .T. ) ;
#134 =( LENGTH_UNIT ( ) NAMED_UNIT ( * ) SI_UNIT ( .MILLI., .METRE. ) );
#135 = EDGE_LOOP ( 'NONE', ( #83 ) ) ;
#136 = CIRCLE ( 'NONE', #89, 1.499999999999996003 ) ;
#137 = ORIENTED_EDGE ( 'NONE', *, *, #73, .T. ) ;
#138 = DIRECTION ( 'NONE',  ( 0.0000000000000000000, 0.0000000000000000000, 1.000000000000000000 ) ) ;
#139 = COORDINATED_UNIVERSAL_TIME_OFFSET ( 1, 0, .AHEAD. ) ;
#140 = CIRCLE ( 'NONE', #219, 1.844000000000002526 ) ;
#141 = APPROVAL_ROLE ( '' ) ;
#142 = PRODUCT_DEFINITION_SHAPE ( 'NONE', 'NONE',  #70 ) ;
#143 = VERTEX_POINT ( 'NONE', #132 ) ;
#144 = APPROVAL_PERSON_ORGANIZATION ( #151, #217, #141 ) ;
#145 = AXIS2_PLACEMENT_3D ( 'NONE', #102, #198, #177 ) ;
#146 = CARTESIAN_POINT ( 'NONE',  ( 0.0000000000000000000, 0.0000000000000000000, 0.0000000000000000000 ) ) ;
#147 = PLANE ( 'NONE',  #201 ) ;
#148 = EDGE_CURVE ( 'NONE', #243, #243, #136, .T. ) ;
#149 = FACE_OUTER_BOUND ( 'NONE', #234, .T. ) ;
#150 = DIRECTION ( 'NONE',  ( -4.275831445896958607E-31, -1.000000000000000000, -1.224646799147353207E-16 ) ) ;
#151 = PERSON_AND_ORGANIZATION ( #175, #9 ) ;
#152 = ORIENTED_EDGE ( 'NONE', *, *, #235, .F. ) ;
#153 = AXIS2_PLACEMENT_3D ( 'NONE', #72, #49, #112 ) ;
#154 = CALENDAR_DATE ( 2021, 30, 11 ) ;
#155 = EDGE_LOOP ( 'NONE', ( #137 ) ) ;
#156 = EDGE_LOOP ( 'NONE', ( #228 ) ) ;
#157 = DATE_AND_TIME ( #101, #190 ) ;
#158 = CIRCLE ( 'NONE', #113, 1.843999999999997863 ) ;
#159 = APPROVAL_DATE_TIME ( #106, #232 ) ;
#160 = DIRECTION ( 'NONE',  ( -3.491481338843133355E-15, 1.224646799147353207E-16, -1.000000000000000000 ) ) ;
#161 = PRODUCT_DEFINITION_FORMATION_WITH_SPECIFIED_SOURCE ( 'ANY', '', #239, .NOT_KNOWN. ) ;
#162 = EDGE_CURVE ( 'NONE', #196, #196, #140, .T. ) ;
#163 = CARTESIAN_POINT ( 'NONE',  ( 8.728703347107833388E-16, 1.843999999999997863, 0.2500000000000000000 ) ) ;
#164 = CC_DESIGN_APPROVAL ( #19, ( #70 ) ) ;
#165 = DIRECTION ( 'NONE',  ( 4.275831445896959482E-31, 1.000000000000000000, 1.224646799147353207E-16 ) ) ;
#166 = CC_DESIGN_DATE_AND_TIME_ASSIGNMENT ( #118, #67, ( #70 ) ) ;
#167 = DIRECTION ( 'NONE',  ( -3.491481338843133355E-15, 1.224646799147353207E-16, -1.000000000000000000 ) ) ;
#168 = CARTESIAN_POINT ( 'NONE',  ( 8.728703347107825500E-16, -3.061616997868380553E-17, 0.2499999999999997780 ) ) ;
#169 = CONICAL_SURFACE ( 'NONE', #88, 1.499999999999996003, 0.5235987755982947078 ) ;
#170 = ADVANCED_FACE ( 'NONE', ( #53 ), #1, .F. ) ;
#171 = APPLICATION_PROTOCOL_DEFINITION ( 'international standard', 'config_control_design', 1994, #178 ) ;
#172 = CIRCLE ( 'NONE', #145, 1.200000000000000178 ) ;
#173 = PERSON_AND_ORGANIZATION ( #175, #9 ) ;
#174 = APPROVAL_STATUS ( 'not_yet_approved' ) ;
#175 = PERSON ( 'UNSPECIFIED', 'UNSPECIFIED', 'UNSPECIFIED', ('UNSPECIFIED'), ('UNSPECIFIED'), ('UNSPECIFIED') ) ;
#176 = PERSON_AND_ORGANIZATION ( #175, #9 ) ;
#177 = DIRECTION ( 'NONE',  ( 0.0000000000000000000, 1.000000000000000000, 0.0000000000000000000 ) ) ;
#178 = APPLICATION_CONTEXT ( 'configuration controlled 3d designs of mechanical parts and assemblies' ) ;
#179 = AXIS2_PLACEMENT_3D ( 'NONE', #74, #114, #77 ) ;
#180 = FACE_OUTER_BOUND ( 'NONE', #62, .T. ) ;
#181 = PERSON_AND_ORGANIZATION_ROLE ( 'design_supplier' ) ;
#182 = DATE_AND_TIME ( #82, #11 ) ;
#183 = CC_DESIGN_PERSON_AND_ORGANIZATION_ASSIGNMENT ( #104, #203, ( #233 ) ) ;
#184 = CYLINDRICAL_SURFACE ( 'NONE', #69, 1.844000000000000083 ) ;
#185 = DIRECTION ( 'NONE',  ( 4.275831445896959482E-31, 1.000000000000000000, 1.224646799147353454E-16 ) ) ;
#186 = PRODUCT_RELATED_PRODUCT_CATEGORY ( 'detail', '', ( #239 ) ) ;
#187 = FACE_OUTER_BOUND ( 'NONE', #231, .T. ) ;
#188 = CC_DESIGN_PERSON_AND_ORGANIZATION_ASSIGNMENT ( #65, #87, ( #161 ) ) ;
#189 = DIRECTION ( 'NONE',  ( 4.177722222098130544E-31, 1.000000000000000000, 1.175924265168661328E-16 ) ) ;
#190 = LOCAL_TIME ( 15, 2, 10.00000000000000000, #236 ) ;
#191 = CARTESIAN_POINT ( 'NONE',  ( 6.982962677686266711E-14, 1.382778519614231094E-32, 20.00000000000000000 ) ) ;
#192 = DIRECTION ( 'NONE',  ( 4.275831445896958607E-31, 1.000000000000000000, 1.224646799147353207E-16 ) ) ;
#193 = DIRECTION ( 'NONE',  ( 0.0000000000000000000, 1.000000000000000000, 0.0000000000000000000 ) ) ;
#194 = MANIFOLD_SOLID_BREP ( 'Corps-Déplacer/Copier1[2]', #90 ) ;
#195 = CIRCLE ( 'NONE', #52, 1.844000000000002526 ) ;
#196 = VERTEX_POINT ( 'NONE', #22 ) ;
#197 = PERSON_AND_ORGANIZATION ( #175, #9 ) ;
#198 = DIRECTION ( 'NONE',  ( -3.491481338843133355E-15, 1.224646799147353207E-16, -1.000000000000000000 ) ) ;
#199 = APPLICATION_CONTEXT ( 'configuration controlled 3d designs of mechanical parts and assemblies' ) ;
#200 = EDGE_LOOP ( 'NONE', ( #66 ) ) ;
#201 = AXIS2_PLACEMENT_3D ( 'NONE', #95, #130, #97 ) ;
#202 = ORIENTED_EDGE ( 'NONE', *, *, #148, .F. ) ;
#203 = PERSON_AND_ORGANIZATION_ROLE ( 'classification_officer' ) ;
#204 = LOCAL_TIME ( 15, 2, 10.00000000000000000, #139 ) ;
#205 = FACE_BOUND ( 'NONE', #135, .T. ) ;
#206 = ADVANCED_FACE ( 'NONE', ( #149 ), #147, .F. ) ;
#207 = CARTESIAN_POINT ( 'NONE',  ( 8.728703347107825500E-16, -3.061616997868380553E-17, 0.2499999999999997780 ) ) ;
#208 = DIRECTION ( 'NONE',  ( -3.491481338843133355E-15, 1.224646799147353207E-16, -1.000000000000000000 ) ) ;
#209 = VERTEX_POINT ( 'NONE', #227 ) ;
#210 = DIRECTION ( 'NONE',  ( 0.0000000000000000000, 1.000000000000000000, 0.0000000000000000000 ) ) ;
#211 = APPLICATION_PROTOCOL_DEFINITION ( 'international standard', 'config_control_design', 1994, #199 ) ;
#212 = ORIENTED_EDGE ( 'NONE', *, *, #24, .T. ) ;
#213 = EDGE_LOOP ( 'NONE', ( #23 ) ) ;
#214 = ADVANCED_FACE ( 'NONE', ( #75 ), #16, .T. ) ;
#215 =( NAMED_UNIT ( * ) SI_UNIT ( $, .STERADIAN. ) SOLID_ANGLE_UNIT ( ) );
#216 = ORIENTED_EDGE ( 'NONE', *, *, #24, .F. ) ;
#217 = APPROVAL ( #237, 'UNSPECIFIED' ) ;
#218 = CARTESIAN_POINT ( 'NONE',  ( -3.030203671993430714E-31, 1.062852373400022027E-32, -8.678848253553769396E-17 ) ) ;
#219 = AXIS2_PLACEMENT_3D ( 'NONE', #111, #37, #193 ) ;
#220 = ADVANCED_BREP_SHAPE_REPRESENTATION ( '969427', ( #109, #194, #28 ), #76 ) ;
#221 = VERTEX_POINT ( 'NONE', #50 ) ;
#222 = DIRECTION ( 'NONE',  ( -3.491481338843133355E-15, 1.224646799147353207E-16, -1.000000000000000000 ) ) ;
#223 = CARTESIAN_POINT ( 'NONE',  ( 7.190994031382162037E-14, -2.522261174718982377E-15, 20.59582547780371087 ) ) ;
#224 = CC_DESIGN_DATE_AND_TIME_ASSIGNMENT ( #182, #27, ( #233 ) ) ;
#225 = DIRECTION ( 'NONE',  ( 3.491481338843133355E-15, -1.224646799147353207E-16, 1.000000000000000000 ) ) ;
#226 = LOCAL_TIME ( 15, 2, 10.00000000000000000, #21 ) ;
#227 = CARTESIAN_POINT ( 'NONE',  ( 3.785471652766323151E-31, 1.594000000000000306, 1.084202172485504434E-16 ) ) ;
#228 = ORIENTED_EDGE ( 'NONE', *, *, #235, .T. ) ;
#229 = PERSON_AND_ORGANIZATION ( #175, #9 ) ;
#230 = PERSON_AND_ORGANIZATION ( #175, #9 ) ;
#231 = EDGE_LOOP ( 'NONE', ( #152 ) ) ;
#232 = APPROVAL ( #174, 'UNSPECIFIED' ) ;
#233 = SECURITY_CLASSIFICATION ( '', '', #122 ) ;
#234 = EDGE_LOOP ( 'NONE', ( #6 ) ) ;
#235 = EDGE_CURVE ( 'NONE', #80, #80, #32, .T. ) ;
#236 = COORDINATED_UNIVERSAL_TIME_OFFSET ( 1, 0, .AHEAD. ) ;
#237 = APPROVAL_STATUS ( 'not_yet_approved' ) ;
#238 = AXIS2_PLACEMENT_3D ( 'NONE', #218, #167, #192 ) ;
#239 = PRODUCT ( '969427', '969427', '', ( #5 ) ) ;
#240 = FACE_OUTER_BOUND ( 'NONE', #44, .T. ) ;
#241 = DESIGN_CONTEXT ( 'detailed design', #199, 'design' ) ;
#242 = APPROVAL_PERSON_ORGANIZATION ( #197, #232, #79 ) ;
#243 = VERTEX_POINT ( 'NONE', #129 ) ;
ENDSEC;
END-ISO-10303-21;
