ISO-10303-21;
HEADER;
FILE_DESCRIPTION (( 'STEP AP203' ),
    '1' );
FILE_NAME ('969426.step',
    '2021-11-30T14:02:09',
    ( '' ),
    ( '' ),
    'SwSTEP 2.0',
    'SolidWorks 2019',
    '' );
FILE_SCHEMA (( 'CONFIG_CONTROL_DESIGN' ));
ENDSEC;

DATA;
#1 = DIRECTION ( 'NONE',  ( -3.491481338843133355E-15, 1.224646799147353207E-16, -1.000000000000000000 ) ) ;
#2 = SECURITY_CLASSIFICATION ( '', '', #126 ) ;
#3 = ADVANCED_FACE ( 'NONE', ( #84 ), #237, .T. ) ;
#4 = FACE_BOUND ( 'NONE', #124, .T. ) ;
#5 = FACE_OUTER_BOUND ( 'NONE', #154, .T. ) ;
#6 = CIRCLE ( 'NONE', #118, 1.829000000000001513 ) ;
#7 = MECHANICAL_CONTEXT ( 'NONE', #66, 'mechanical' ) ;
#8 = APPLICATION_PROTOCOL_DEFINITION ( 'international standard', 'config_control_design', 1994, #66 ) ;
#9 = CARTESIAN_POINT ( 'NONE',  ( -1.483033100152487848E-31, 5.201779883300469992E-33, -4.247575616840832795E-17 ) ) ;
#10 = DATE_AND_TIME ( #204, #38 ) ;
#11 = ORIENTED_EDGE ( 'NONE', *, *, #156, .F. ) ;
#12 = APPROVAL_STATUS ( 'not_yet_approved' ) ;
#13 = AXIS2_PLACEMENT_3D ( 'NONE', #212, #21, #232 ) ;
#14 = CLOSED_SHELL ( 'NONE', ( #171, #222, #76, #3 ) ) ;
#15 = AXIS2_PLACEMENT_3D ( 'NONE', #159, #161, #179 ) ;
#16 = ADVANCED_FACE ( 'NONE', ( #35 ), #190, .F. ) ;
#17 = CARTESIAN_POINT ( 'NONE',  ( 6.982962677686265448E-14, 4.386000136645960935E-31, 19.99999999999999645 ) ) ;
#18 = EDGE_CURVE ( 'NONE', #63, #63, #89, .T. ) ;
#19 = DIRECTION ( 'NONE',  ( 0.0000000000000000000, 1.000000000000000000, 0.0000000000000000000 ) ) ;
#20 = AXIS2_PLACEMENT_3D ( 'NONE', #45, #231, #78 ) ;
#21 = DIRECTION ( 'NONE',  ( -3.491481338843133355E-15, 1.224646799147353207E-16, -1.000000000000000000 ) ) ;
#22 = CARTESIAN_POINT ( 'NONE',  ( 6.982962677686265448E-14, 1.828999999999999071, 19.99999999999999645 ) ) ;
#23 = LOCAL_TIME ( 15, 2, 9.000000000000000000, #185 ) ;
#24 = CARTESIAN_POINT ( 'NONE',  ( 1.955229549752154679E-13, 8.998558695971043013E-33, 56.00000000000000000 ) ) ;
#25 = MANIFOLD_SOLID_BREP ( 'Corps-Déplacer/Copier1[2]', #14 ) ;
#26 = FACE_BOUND ( 'NONE', #28, .T. ) ;
#27 = DIRECTION ( 'NONE',  ( 4.275831445896958607E-31, 1.000000000000000000, 1.224646799147353207E-16 ) ) ;
#28 = EDGE_LOOP ( 'NONE', ( #87 ) ) ;
#29 = AXIS2_PLACEMENT_3D ( 'NONE', #180, #57, #137 ) ;
#30 = PERSON_AND_ORGANIZATION ( #42, #73 ) ;
#31 = COORDINATED_UNIVERSAL_TIME_OFFSET ( 1, 0, .AHEAD. ) ;
#32 = PERSON_AND_ORGANIZATION ( #42, #73 ) ;
#33 = MANIFOLD_SOLID_BREP ( 'Corps-Déplacer/Copier1[1]', #52 ) ;
#34 = COORDINATED_UNIVERSAL_TIME_OFFSET ( 1, 0, .AHEAD. ) ;
#35 = FACE_OUTER_BOUND ( 'NONE', #241, .T. ) ;
#36 = AXIS2_PLACEMENT_3D ( 'NONE', #17, #158, #58 ) ;
#37 = CARTESIAN_POINT ( 'NONE',  ( 0.0000000000000000000, 0.0000000000000000000, 0.0000000000000000000 ) ) ;
#38 = LOCAL_TIME ( 15, 2, 9.000000000000000000, #110 ) ;
#39 = APPROVAL ( #195, 'UNSPECIFIED' ) ;
#40 = DIRECTION ( 'NONE',  ( -3.491481338843133355E-15, 1.224646799147353207E-16, -1.000000000000000000 ) ) ;
#41 = DIRECTION ( 'NONE',  ( -3.491481338843133355E-15, 1.224646799147353207E-16, -1.000000000000000000 ) ) ;
#42 = PERSON ( 'UNSPECIFIED', 'UNSPECIFIED', 'UNSPECIFIED', ('UNSPECIFIED'), ('UNSPECIFIED'), ('UNSPECIFIED') ) ;
#43 = CARTESIAN_POINT ( 'NONE',  ( 6.982962677686265448E-14, 1.828999999999999071, 19.99999999999999645 ) ) ;
#44 = DIRECTION ( 'NONE',  ( 3.491481338843133355E-15, -1.224646799147353207E-16, 1.000000000000000000 ) ) ;
#45 = CARTESIAN_POINT ( 'NONE',  ( 8.728703347107825500E-16, -3.061616997868380553E-17, 0.2499999999999997780 ) ) ;
#46 = APPROVAL ( #107, 'UNSPECIFIED' ) ;
#47 = DIRECTION ( 'NONE',  ( -4.275831445896958607E-31, -1.000000000000000000, -1.224646799147353207E-16 ) ) ;
#48 = EDGE_LOOP ( 'NONE', ( #122 ) ) ;
#49 = CALENDAR_DATE ( 2021, 30, 11 ) ;
#50 = CC_DESIGN_PERSON_AND_ORGANIZATION_ASSIGNMENT ( #223, #218, ( #199 ) ) ;
#51 = ORIENTED_EDGE ( 'NONE', *, *, #18, .F. ) ;
#52 = CLOSED_SHELL ( 'NONE', ( #16, #184, #141, #127, #92 ) ) ;
#53 = APPROVAL_DATE_TIME ( #202, #46 ) ;
#54 = DATE_AND_TIME ( #123, #23 ) ;
#55 = AXIS2_PLACEMENT_3D ( 'NONE', #134, #192, #112 ) ;
#56 = PERSON_AND_ORGANIZATION_ROLE ( 'creator' ) ;
#57 = DIRECTION ( 'NONE',  ( -3.491481338843133355E-15, 1.224646799147353207E-16, -1.000000000000000000 ) ) ;
#58 = DIRECTION ( 'NONE',  ( -4.275831445896958607E-31, -1.000000000000000000, -1.224646799147353207E-16 ) ) ;
#59 = FACE_OUTER_BOUND ( 'NONE', #215, .T. ) ;
#60 = PERSON_AND_ORGANIZATION ( #42, #73 ) ;
#61 = FACE_OUTER_BOUND ( 'NONE', #217, .T. ) ;
#62 = CARTESIAN_POINT ( 'NONE',  ( 1.955229549752154679E-13, -6.858022075225178552E-15, 56.00000000000000000 ) ) ;
#63 = VERTEX_POINT ( 'NONE', #82 ) ;
#64 = LOCAL_TIME ( 15, 2, 9.000000000000000000, #85 ) ;
#65 = CARTESIAN_POINT ( 'NONE',  ( 7.181922896773328893E-14, -2.519079449002807639E-15, 20.56984471569017714 ) ) ;
#66 = APPLICATION_CONTEXT ( 'configuration controlled 3d designs of mechanical parts and assemblies' ) ;
#67 = PERSON_AND_ORGANIZATION_ROLE ( 'classification_officer' ) ;
#68 = AXIS2_PLACEMENT_3D ( 'NONE', #9, #44, #47 ) ;
#69 = ORIENTED_EDGE ( 'NONE', *, *, #200, .T. ) ;
#70 = APPROVAL_ROLE ( '' ) ;
#71 = CC_DESIGN_PERSON_AND_ORGANIZATION_ASSIGNMENT ( #30, #67, ( #2 ) ) ;
#72 = DATE_AND_TIME ( #86, #64 ) ;
#73 = ORGANIZATION ( 'UNSPECIFIED', 'UNSPECIFIED', '' ) ;
#74 = CC_DESIGN_APPROVAL ( #46, ( #199 ) ) ;
#75 = DIRECTION ( 'NONE',  ( 0.0000000000000000000, 1.000000000000000000, 0.0000000000000000000 ) ) ;
#76 = ADVANCED_FACE ( 'NONE', ( #61, #5 ), #79, .T. ) ;
#77 = VERTEX_POINT ( 'NONE', #121 ) ;
#78 = DIRECTION ( 'NONE',  ( -4.211984569463616533E-31, -1.000000000000000000, -1.185568258595413903E-16 ) ) ;
#79 = CYLINDRICAL_SURFACE ( 'NONE', #111, 1.828999999999999515 ) ;
#80 = EDGE_CURVE ( 'NONE', #150, #150, #210, .T. ) ;
#81 = VERTEX_POINT ( 'NONE', #142 ) ;
#82 = CARTESIAN_POINT ( 'NONE',  ( 3.785471652766322275E-31, 1.579000000000000181, 1.084202172485504434E-16 ) ) ;
#83 = CIRCLE ( 'NONE', #224, 1.499999999999999778 ) ;
#84 = FACE_OUTER_BOUND ( 'NONE', #220, .T. ) ;
#85 = COORDINATED_UNIVERSAL_TIME_OFFSET ( 1, 0, .AHEAD. ) ;
#86 = CALENDAR_DATE ( 2021, 30, 11 ) ;
#87 = ORIENTED_EDGE ( 'NONE', *, *, #160, .T. ) ;
#88 = ORIENTED_EDGE ( 'NONE', *, *, #136, .F. ) ;
#89 = CIRCLE ( 'NONE', #219, 1.579000000000000181 ) ;
#90 = DIRECTION ( 'NONE',  ( 4.275831445896958607E-31, 1.000000000000000000, 1.224646799147353207E-16 ) ) ;
#91 = CC_DESIGN_PERSON_AND_ORGANIZATION_ASSIGNMENT ( #242, #56, ( #199 ) ) ;
#92 = ADVANCED_FACE ( 'NONE', ( #100 ), #233, .F. ) ;
#93 = CARTESIAN_POINT ( 'NONE',  ( -2.966066200304975696E-31, 1.040355976660093998E-32, -8.495151233681665589E-17 ) ) ;
#94 = DIRECTION ( 'NONE',  ( -3.491481338843133355E-15, 1.224646799147353207E-16, -1.000000000000000000 ) ) ;
#95 = DIRECTION ( 'NONE',  ( 0.0000000000000000000, 1.000000000000000000, 0.0000000000000000000 ) ) ;
#96 = CC_DESIGN_PERSON_AND_ORGANIZATION_ASSIGNMENT ( #227, #145, ( #173 ) ) ;
#97 = CONICAL_SURFACE ( 'NONE', #240, 1.499999999999996003, 0.5235987755982909331 ) ;
#98 = DIRECTION ( 'NONE',  ( 4.275831445896958607E-31, 1.000000000000000000, 1.224646799147353207E-16 ) ) ;
#99 = DIRECTION ( 'NONE',  ( 0.0000000000000000000, 1.000000000000000000, 0.0000000000000000000 ) ) ;
#100 = FACE_OUTER_BOUND ( 'NONE', #151, .T. ) ;
#101 = APPLICATION_PROTOCOL_DEFINITION ( 'international standard', 'config_control_design', 1994, #205 ) ;
#102 = EDGE_LOOP ( 'NONE', ( #69 ) ) ;
#103 = AXIS2_PLACEMENT_3D ( 'NONE', #181, #143, #196 ) ;
#104 = ORIENTED_EDGE ( 'NONE', *, *, #200, .F. ) ;
#105 =( GEOMETRIC_REPRESENTATION_CONTEXT ( 3 ) GLOBAL_UNCERTAINTY_ASSIGNED_CONTEXT ( ( #191 ) ) GLOBAL_UNIT_ASSIGNED_CONTEXT ( ( #117, #230, #116 ) ) REPRESENTATION_CONTEXT ( 'NONE', 'WORKASPACE' ) );
#106 = EDGE_LOOP ( 'NONE', ( #88 ) ) ;
#107 = APPROVAL_STATUS ( 'not_yet_approved' ) ;
#108 = APPROVAL_ROLE ( '' ) ;
#109 = DATE_TIME_ROLE ( 'creation_date' ) ;
#110 = COORDINATED_UNIVERSAL_TIME_OFFSET ( 1, 0, .AHEAD. ) ;
#111 = AXIS2_PLACEMENT_3D ( 'NONE', #144, #41, #98 ) ;
#112 = DIRECTION ( 'NONE',  ( -4.275831445896958607E-31, -1.000000000000000000, -1.224646799147353207E-16 ) ) ;
#113 = CC_DESIGN_DATE_AND_TIME_ASSIGNMENT ( #72, #128, ( #2 ) ) ;
#114 = DIRECTION ( 'NONE',  ( -3.491481338843133355E-15, 1.224646799147353207E-16, -1.000000000000000000 ) ) ;
#115 = APPROVAL ( #12, 'UNSPECIFIED' ) ;
#116 =( NAMED_UNIT ( * ) SI_UNIT ( $, .STERADIAN. ) SOLID_ANGLE_UNIT ( ) );
#117 =( LENGTH_UNIT ( ) NAMED_UNIT ( * ) SI_UNIT ( .MILLI., .METRE. ) );
#118 = AXIS2_PLACEMENT_3D ( 'NONE', #139, #40, #19 ) ;
#119 = CIRCLE ( 'NONE', #153, 1.499999999999996003 ) ;
#120 = VERTEX_POINT ( 'NONE', #22 ) ;
#121 = CARTESIAN_POINT ( 'NONE',  ( 7.181922896773328893E-14, 1.499999999999993339, 20.56984471569017714 ) ) ;
#122 = ORIENTED_EDGE ( 'NONE', *, *, #160, .F. ) ;
#123 = CALENDAR_DATE ( 2021, 30, 11 ) ;
#124 = EDGE_LOOP ( 'NONE', ( #51 ) ) ;
#125 = LOCAL_TIME ( 15, 2, 9.000000000000000000, #31 ) ;
#126 = SECURITY_CLASSIFICATION_LEVEL ( 'unclassified' ) ;
#127 = ADVANCED_FACE ( 'NONE', ( #236, #182 ), #213, .T. ) ;
#128 = DATE_TIME_ROLE ( 'classification_date' ) ;
#129 = EDGE_LOOP ( 'NONE', ( #197 ) ) ;
#130 = APPROVAL_DATE_TIME ( #165, #115 ) ;
#131 = AXIS2_PLACEMENT_3D ( 'NONE', #62, #162, #95 ) ;
#132 = PERSON_AND_ORGANIZATION ( #42, #73 ) ;
#133 = CIRCLE ( 'NONE', #13, 1.828999999999997517 ) ;
#134 = CARTESIAN_POINT ( 'NONE',  ( 6.982962677686265448E-14, 4.386000136645960935E-31, 19.99999999999999645 ) ) ;
#135 = CARTESIAN_POINT ( 'NONE',  ( 1.944755105735625216E-13, -6.821282671250756903E-15, 55.70000000000000284 ) ) ;
#136 = EDGE_CURVE ( 'NONE', #216, #216, #83, .T. ) ;
#137 = DIRECTION ( 'NONE',  ( 0.0000000000000000000, 1.000000000000000000, 0.0000000000000000000 ) ) ;
#138 = DESIGN_CONTEXT ( 'detailed design', #205, 'design' ) ;
#139 = CARTESIAN_POINT ( 'NONE',  ( 6.982962677686265448E-14, -2.449293598294706119E-15, 19.99999999999999645 ) ) ;
#140 = AXIS2_PLACEMENT_3D ( 'NONE', #24, #194, #27 ) ;
#141 = ADVANCED_FACE ( 'NONE', ( #226, #59 ), #187, .T. ) ;
#142 = CARTESIAN_POINT ( 'NONE',  ( 1.955229549752154679E-13, 1.199999999999993072, 56.00000000000000000 ) ) ;
#143 = DIRECTION ( 'NONE',  ( -3.491481338843133355E-15, 1.224646799147353207E-16, -1.000000000000000000 ) ) ;
#144 = CARTESIAN_POINT ( 'NONE',  ( 0.0000000000000000000, 0.0000000000000000000, 0.0000000000000000000 ) ) ;
#145 = PERSON_AND_ORGANIZATION_ROLE ( 'design_owner' ) ;
#146 = FACE_OUTER_BOUND ( 'NONE', #149, .T. ) ;
#147 = CONICAL_SURFACE ( 'NONE', #20, 1.828999999999997517, 0.7853981633974432830 ) ;
#148 = APPROVAL_PERSON_ORGANIZATION ( #60, #39, #108 ) ;
#149 = EDGE_LOOP ( 'NONE', ( #167 ) ) ;
#150 = VERTEX_POINT ( 'NONE', #43 ) ;
#151 = EDGE_LOOP ( 'NONE', ( #104 ) ) ;
#152 = PRODUCT_RELATED_PRODUCT_CATEGORY ( 'detail', '', ( #173 ) ) ;
#153 = AXIS2_PLACEMENT_3D ( 'NONE', #175, #1, #75 ) ;
#154 = EDGE_LOOP ( 'NONE', ( #155 ) ) ;
#155 = ORIENTED_EDGE ( 'NONE', *, *, #156, .T. ) ;
#156 = EDGE_CURVE ( 'NONE', #120, #120, #6, .T. ) ;
#157 = CC_DESIGN_APPROVAL ( #115, ( #2 ) ) ;
#158 = DIRECTION ( 'NONE',  ( 3.491481338843133355E-15, -1.224646799147353207E-16, 1.000000000000000000 ) ) ;
#159 = CARTESIAN_POINT ( 'NONE',  ( 0.0000000000000000000, 0.0000000000000000000, 0.0000000000000000000 ) ) ;
#160 = EDGE_CURVE ( 'NONE', #77, #77, #119, .T. ) ;
#161 = DIRECTION ( 'NONE',  ( 0.0000000000000000000, 0.0000000000000000000, 1.000000000000000000 ) ) ;
#162 = DIRECTION ( 'NONE',  ( -3.491481338843133355E-15, 1.224646799147353207E-16, -1.000000000000000000 ) ) ;
#163 = VERTEX_POINT ( 'NONE', #193 ) ;
#164 = AXIS2_PLACEMENT_3D ( 'NONE', #37, #177, #174 ) ;
#165 = DATE_AND_TIME ( #49, #125 ) ;
#166 = PRODUCT_DEFINITION ( 'UNKNOWN', '', #199, #138 ) ;
#167 = ORIENTED_EDGE ( 'NONE', *, *, #209, .T. ) ;
#168 = ORIENTED_EDGE ( 'NONE', *, *, #136, .T. ) ;
#169 = APPROVAL_ROLE ( '' ) ;
#170 = CALENDAR_DATE ( 2021, 30, 11 ) ;
#171 = ADVANCED_FACE ( 'NONE', ( #225 ), #208, .F. ) ;
#172 = CC_DESIGN_SECURITY_CLASSIFICATION ( #2, ( #199 ) ) ;
#173 = PRODUCT ( '969426', '969426', '', ( #7 ) ) ;
#174 = DIRECTION ( 'NONE',  ( 4.275831445896959482E-31, 1.000000000000000000, 1.224646799147353207E-16 ) ) ;
#175 = CARTESIAN_POINT ( 'NONE',  ( 7.181922896773328893E-14, -2.519079449002807639E-15, 20.56984471569017714 ) ) ;
#176 = DIRECTION ( 'NONE',  ( -3.491481338843133355E-15, 1.224646799147353207E-16, -1.000000000000000000 ) ) ;
#177 = DIRECTION ( 'NONE',  ( -3.491481338843133355E-15, 1.224646799147353207E-16, -1.000000000000000000 ) ) ;
#178 = CARTESIAN_POINT ( 'NONE',  ( 1.944755105735625216E-13, 1.499999999999993117, 55.70000000000000284 ) ) ;
#179 = DIRECTION ( 'NONE',  ( 1.000000000000000000, 0.0000000000000000000, 0.0000000000000000000 ) ) ;
#180 = CARTESIAN_POINT ( 'NONE',  ( 1.955229549752154679E-13, -6.858022075225178552E-15, 56.00000000000000000 ) ) ;
#181 = CARTESIAN_POINT ( 'NONE',  ( 6.982962677686265448E-14, -2.449293598294706119E-15, 19.99999999999999645 ) ) ;
#182 = FACE_BOUND ( 'NONE', #102, .T. ) ;
#183 = ORIENTED_EDGE ( 'NONE', *, *, #80, .T. ) ;
#184 = ADVANCED_FACE ( 'NONE', ( #198, #26 ), #97, .T. ) ;
#185 = COORDINATED_UNIVERSAL_TIME_OFFSET ( 1, 0, .AHEAD. ) ;
#186 = EDGE_LOOP ( 'NONE', ( #234 ) ) ;
#187 = CYLINDRICAL_SURFACE ( 'NONE', #164, 1.499999999999997780 ) ;
#188 = CC_DESIGN_PERSON_AND_ORGANIZATION_ASSIGNMENT ( #132, #201, ( #166 ) ) ;
#189 = APPROVAL_PERSON_ORGANIZATION ( #239, #46, #169 ) ;
#190 = PLANE ( 'NONE',  #36 ) ;
#191 = UNCERTAINTY_MEASURE_WITH_UNIT (LENGTH_MEASURE( 1.000000000000000082E-05 ), #117, 'distance_accuracy_value', 'NONE');
#192 = DIRECTION ( 'NONE',  ( 3.491481338843133355E-15, -1.224646799147353207E-16, 1.000000000000000000 ) ) ;
#193 = CARTESIAN_POINT ( 'NONE',  ( 8.728703347107833388E-16, 1.828999999999997517, 0.2500000000000000000 ) ) ;
#194 = DIRECTION ( 'NONE',  ( -3.491481338843133355E-15, 1.224646799147353207E-16, -1.000000000000000000 ) ) ;
#195 = APPROVAL_STATUS ( 'not_yet_approved' ) ;
#196 = DIRECTION ( 'NONE',  ( 0.0000000000000000000, 1.000000000000000000, 0.0000000000000000000 ) ) ;
#197 = ORIENTED_EDGE ( 'NONE', *, *, #80, .F. ) ;
#198 = FACE_OUTER_BOUND ( 'NONE', #129, .T. ) ;
#199 = PRODUCT_DEFINITION_FORMATION_WITH_SPECIFIED_SOURCE ( 'ANY', '', #173, .NOT_KNOWN. ) ;
#200 = EDGE_CURVE ( 'NONE', #81, #81, #235, .T. ) ;
#201 = PERSON_AND_ORGANIZATION_ROLE ( 'creator' ) ;
#202 = DATE_AND_TIME ( #170, #214 ) ;
#203 = APPROVAL_DATE_TIME ( #10, #39 ) ;
#204 = CALENDAR_DATE ( 2021, 30, 11 ) ;
#205 = APPLICATION_CONTEXT ( 'configuration controlled 3d designs of mechanical parts and assemblies' ) ;
#206 = PRODUCT_DEFINITION_SHAPE ( 'NONE', 'NONE',  #166 ) ;
#207 = DIRECTION ( 'NONE',  ( 0.0000000000000000000, 1.000000000000000000, 0.0000000000000000000 ) ) ;
#208 = PLANE ( 'NONE',  #68 ) ;
#209 = EDGE_CURVE ( 'NONE', #163, #163, #133, .T. ) ;
#210 = CIRCLE ( 'NONE', #103, 1.829000000000001513 ) ;
#211 = CC_DESIGN_APPROVAL ( #39, ( #166 ) ) ;
#212 = CARTESIAN_POINT ( 'NONE',  ( 8.728703347107825500E-16, -3.061616997868380553E-17, 0.2499999999999997780 ) ) ;
#213 = CONICAL_SURFACE ( 'NONE', #29, 1.200000000000000178, 0.7853981633974450594 ) ;
#214 = LOCAL_TIME ( 15, 2, 9.000000000000000000, #34 ) ;
#215 = EDGE_LOOP ( 'NONE', ( #168 ) ) ;
#216 = VERTEX_POINT ( 'NONE', #178 ) ;
#217 = EDGE_LOOP ( 'NONE', ( #221 ) ) ;
#218 = PERSON_AND_ORGANIZATION_ROLE ( 'design_supplier' ) ;
#219 = AXIS2_PLACEMENT_3D ( 'NONE', #93, #176, #90 ) ;
#220 = EDGE_LOOP ( 'NONE', ( #11 ) ) ;
#221 = ORIENTED_EDGE ( 'NONE', *, *, #209, .F. ) ;
#222 = ADVANCED_FACE ( 'NONE', ( #4, #146 ), #147, .T. ) ;
#223 = PERSON_AND_ORGANIZATION ( #42, #73 ) ;
#224 = AXIS2_PLACEMENT_3D ( 'NONE', #135, #94, #207 ) ;
#225 = FACE_OUTER_BOUND ( 'NONE', #186, .T. ) ;
#226 = FACE_OUTER_BOUND ( 'NONE', #48, .T. ) ;
#227 = PERSON_AND_ORGANIZATION ( #42, #73 ) ;
#228 = ADVANCED_BREP_SHAPE_REPRESENTATION ( '969426', ( #33, #25, #15 ), #105 ) ;
#229 = APPROVAL_PERSON_ORGANIZATION ( #32, #115, #70 ) ;
#230 =( NAMED_UNIT ( * ) PLANE_ANGLE_UNIT ( ) SI_UNIT ( $, .RADIAN. ) );
#231 = DIRECTION ( 'NONE',  ( 3.491481338843133355E-15, -1.224646799147353207E-16, 1.000000000000000000 ) ) ;
#232 = DIRECTION ( 'NONE',  ( 4.211984569463616533E-31, 1.000000000000000000, 1.185568258595413903E-16 ) ) ;
#233 = PLANE ( 'NONE',  #140 ) ;
#234 = ORIENTED_EDGE ( 'NONE', *, *, #18, .T. ) ;
#235 = CIRCLE ( 'NONE', #131, 1.200000000000000178 ) ;
#236 = FACE_OUTER_BOUND ( 'NONE', #106, .T. ) ;
#237 = PLANE ( 'NONE',  #55 ) ;
#238 = CC_DESIGN_DATE_AND_TIME_ASSIGNMENT ( #54, #109, ( #166 ) ) ;
#239 = PERSON_AND_ORGANIZATION ( #42, #73 ) ;
#240 = AXIS2_PLACEMENT_3D ( 'NONE', #65, #114, #99 ) ;
#241 = EDGE_LOOP ( 'NONE', ( #183 ) ) ;
#242 = PERSON_AND_ORGANIZATION ( #42, #73 ) ;
#243 = SHAPE_DEFINITION_REPRESENTATION ( #206, #228 ) ;
ENDSEC;
END-ISO-10303-21;
