ISO-10303-21;
HEADER;
FILE_DESCRIPTION (( 'STEP AP203' ),
    '1' );
FILE_NAME ('969425.step',
    '2021-11-30T14:02:09',
    ( '' ),
    ( '' ),
    'SwSTEP 2.0',
    'SolidWorks 2019',
    '' );
FILE_SCHEMA (( 'CONFIG_CONTROL_DESIGN' ));
ENDSEC;

DATA;
#1 = CONICAL_SURFACE ( 'NONE', #210, 1.200000000000000178, 0.7853981633974450594 ) ;
#2 = DIRECTION ( 'NONE',  ( 0.0000000000000000000, 0.0000000000000000000, 1.000000000000000000 ) ) ;
#3 = DIRECTION ( 'NONE',  ( -4.275831445896958607E-31, -1.000000000000000000, -1.224646799147353207E-16 ) ) ;
#4 = ORIENTED_EDGE ( 'NONE', *, *, #167, .F. ) ;
#5 = AXIS2_PLACEMENT_3D ( 'NONE', #29, #108, #160 ) ;
#6 = ORIENTED_EDGE ( 'NONE', *, *, #16, .T. ) ;
#7 = AXIS2_PLACEMENT_3D ( 'NONE', #114, #2, #132 ) ;
#8 = CARTESIAN_POINT ( 'NONE',  ( 8.728703347107825500E-16, -3.061616997868380553E-17, 0.2499999999999997780 ) ) ;
#9 = CALENDAR_DATE ( 2021, 30, 11 ) ;
#10 = DIRECTION ( 'NONE',  ( -3.491481338843133355E-15, 1.224646799147353207E-16, -1.000000000000000000 ) ) ;
#11 = PERSON_AND_ORGANIZATION ( #150, #40 ) ;
#12 = CARTESIAN_POINT ( 'NONE',  ( 6.982962677686265448E-14, -2.449293598294706119E-15, 19.99999999999999645 ) ) ;
#13 = PRODUCT_DEFINITION_FORMATION_WITH_SPECIFIED_SOURCE ( 'ANY', '', #28, .NOT_KNOWN. ) ;
#14 = PERSON_AND_ORGANIZATION ( #150, #40 ) ;
#15 = DIRECTION ( 'NONE',  ( -3.491481338843133355E-15, 1.224646799147353207E-16, -1.000000000000000000 ) ) ;
#16 = EDGE_CURVE ( 'NONE', #95, #95, #50, .T. ) ;
#17 = AXIS2_PLACEMENT_3D ( 'NONE', #88, #234, #164 ) ;
#18 = LOCAL_TIME ( 15, 2, 9.000000000000000000, #161 ) ;
#19 = PERSON_AND_ORGANIZATION_ROLE ( 'creator' ) ;
#20 = APPROVAL ( #56, 'UNSPECIFIED' ) ;
#21 = AXIS2_PLACEMENT_3D ( 'NONE', #176, #10, #216 ) ;
#22 = APPROVAL_ROLE ( '' ) ;
#23 = ADVANCED_FACE ( 'NONE', ( #82, #236 ), #120, .T. ) ;
#24 = CARTESIAN_POINT ( 'NONE',  ( 7.169828050628217614E-14, 1.499999999999993339, 20.53520369953879765 ) ) ;
#25 = ORIENTED_EDGE ( 'NONE', *, *, #217, .F. ) ;
#26 = MANIFOLD_SOLID_BREP ( 'Corps-Déplacer/Copier1[2]', #119 ) ;
#27 = ORIENTED_EDGE ( 'NONE', *, *, #72, .F. ) ;
#28 = PRODUCT ( '969425', '969425', '', ( #49 ) ) ;
#29 = CARTESIAN_POINT ( 'NONE',  ( 7.169828050628217614E-14, -2.514837148047907067E-15, 20.53520369953879765 ) ) ;
#30 = DIRECTION ( 'NONE',  ( -3.491481338843133355E-15, 1.224646799147353207E-16, -1.000000000000000000 ) ) ;
#31 = CARTESIAN_POINT ( 'NONE',  ( 6.982962677686265448E-14, -2.449293598294706119E-15, 19.99999999999999645 ) ) ;
#32 = ADVANCED_FACE ( 'NONE', ( #157, #238 ), #224, .T. ) ;
#33 = APPROVAL_PERSON_ORGANIZATION ( #149, #20, #22 ) ;
#34 = CALENDAR_DATE ( 2021, 30, 11 ) ;
#35 = APPROVAL_DATE_TIME ( #200, #111 ) ;
#36 = DIRECTION ( 'NONE',  ( 4.275831445896959482E-31, 1.000000000000000000, 1.224646799147353207E-16 ) ) ;
#37 = PERSON_AND_ORGANIZATION ( #150, #40 ) ;
#38 = CIRCLE ( 'NONE', #222, 1.499999999999996003 ) ;
#39 = COORDINATED_UNIVERSAL_TIME_OFFSET ( 1, 0, .AHEAD. ) ;
#40 = ORGANIZATION ( 'UNSPECIFIED', 'UNSPECIFIED', '' ) ;
#41 = ORIENTED_EDGE ( 'NONE', *, *, #237, .F. ) ;
#42 = EDGE_LOOP ( 'NONE', ( #27 ) ) ;
#43 = CC_DESIGN_DATE_AND_TIME_ASSIGNMENT ( #131, #205, ( #146 ) ) ;
#44 = DIRECTION ( 'NONE',  ( -3.491481338843133355E-15, 1.224646799147353207E-16, -1.000000000000000000 ) ) ;
#45 = AXIS2_PLACEMENT_3D ( 'NONE', #65, #46, #196 ) ;
#46 = DIRECTION ( 'NONE',  ( 3.491481338843133355E-15, -1.224646799147353207E-16, 1.000000000000000000 ) ) ;
#47 = PLANE ( 'NONE',  #221 ) ;
#48 = CARTESIAN_POINT ( 'NONE',  ( 0.0000000000000000000, 0.0000000000000000000, 0.0000000000000000000 ) ) ;
#49 = MECHANICAL_CONTEXT ( 'NONE', #137, 'mechanical' ) ;
#50 = CIRCLE ( 'NONE', #207, 1.808999999999997499 ) ;
#51 = DIRECTION ( 'NONE',  ( -3.491481338843133355E-15, 1.224646799147353207E-16, -1.000000000000000000 ) ) ;
#52 = PERSON_AND_ORGANIZATION ( #150, #40 ) ;
#53 = VERTEX_POINT ( 'NONE', #187 ) ;
#54 = ADVANCED_FACE ( 'NONE', ( #162 ), #47, .F. ) ;
#55 = FACE_OUTER_BOUND ( 'NONE', #173, .T. ) ;
#56 = APPROVAL_STATUS ( 'not_yet_approved' ) ;
#57 = DIRECTION ( 'NONE',  ( 0.0000000000000000000, 1.000000000000000000, 0.0000000000000000000 ) ) ;
#58 = ORIENTED_EDGE ( 'NONE', *, *, #217, .T. ) ;
#59 = DIRECTION ( 'NONE',  ( -3.491481338843133355E-15, 1.224646799147353207E-16, -1.000000000000000000 ) ) ;
#60 = EDGE_LOOP ( 'NONE', ( #6 ) ) ;
#61 = AXIS2_PLACEMENT_3D ( 'NONE', #148, #219, #152 ) ;
#62 = ORIENTED_EDGE ( 'NONE', *, *, #179, .F. ) ;
#63 = DIRECTION ( 'NONE',  ( 3.491481338843133355E-15, -1.224646799147353207E-16, 1.000000000000000000 ) ) ;
#64 = SHAPE_DEFINITION_REPRESENTATION ( #233, #243 ) ;
#65 = CARTESIAN_POINT ( 'NONE',  ( 6.982962677686265448E-14, 4.384500376863298957E-31, 19.99999999999999645 ) ) ;
#66 = LOCAL_TIME ( 15, 2, 9.000000000000000000, #143 ) ;
#67 = DIRECTION ( 'NONE',  ( 0.0000000000000000000, 1.000000000000000000, 0.0000000000000000000 ) ) ;
#68 = DATE_AND_TIME ( #9, #116 ) ;
#69 = FACE_BOUND ( 'NONE', #232, .T. ) ;
#70 = APPLICATION_CONTEXT ( 'configuration controlled 3d designs of mechanical parts and assemblies' ) ;
#71 = CYLINDRICAL_SURFACE ( 'NONE', #195, 1.808999999999999941 ) ;
#72 = EDGE_CURVE ( 'NONE', #76, #76, #134, .T. ) ;
#73 = LOCAL_TIME ( 15, 2, 9.000000000000000000, #39 ) ;
#74 = ADVANCED_FACE ( 'NONE', ( #69, #183 ), #153, .T. ) ;
#75 = CARTESIAN_POINT ( 'NONE',  ( 1.955229549752154679E-13, 1.199999999999993072, 56.00000000000000000 ) ) ;
#76 = VERTEX_POINT ( 'NONE', #75 ) ;
#77 = ORIENTED_EDGE ( 'NONE', *, *, #16, .F. ) ;
#78 = ORIENTED_EDGE ( 'NONE', *, *, #179, .T. ) ;
#79 = CC_DESIGN_APPROVAL ( #91, ( #146 ) ) ;
#80 = ORIENTED_EDGE ( 'NONE', *, *, #72, .T. ) ;
#81 = AXIS2_PLACEMENT_3D ( 'NONE', #31, #30, #103 ) ;
#82 = FACE_OUTER_BOUND ( 'NONE', #155, .T. ) ;
#83 = APPROVAL_STATUS ( 'not_yet_approved' ) ;
#84 = PLANE ( 'NONE',  #45 ) ;
#85 = CLOSED_SHELL ( 'NONE', ( #172, #32, #23, #90, #136 ) ) ;
#86 = SECURITY_CLASSIFICATION_LEVEL ( 'unclassified' ) ;
#87 = VERTEX_POINT ( 'NONE', #184 ) ;
#88 = CARTESIAN_POINT ( 'NONE',  ( 1.955229549752154679E-13, -6.858022075225178552E-15, 56.00000000000000000 ) ) ;
#89 = APPROVAL_DATE_TIME ( #109, #91 ) ;
#90 = ADVANCED_FACE ( 'NONE', ( #198, #180 ), #1, .T. ) ;
#91 = APPROVAL ( #163, 'UNSPECIFIED' ) ;
#92 = VERTEX_POINT ( 'NONE', #191 ) ;
#93 = DESIGN_CONTEXT ( 'detailed design', #70, 'design' ) ;
#94 = COORDINATED_UNIVERSAL_TIME_OFFSET ( 1, 0, .AHEAD. ) ;
#95 = VERTEX_POINT ( 'NONE', #225 ) ;
#96 = EDGE_LOOP ( 'NONE', ( #4 ) ) ;
#97 = PRODUCT_RELATED_PRODUCT_CATEGORY ( 'detail', '', ( #28 ) ) ;
#98 = AXIS2_PLACEMENT_3D ( 'NONE', #242, #139, #123 ) ;
#99 = ORIENTED_EDGE ( 'NONE', *, *, #167, .T. ) ;
#100 = EDGE_CURVE ( 'NONE', #92, #92, #239, .T. ) ;
#101 = AXIS2_PLACEMENT_3D ( 'NONE', #48, #118, #36 ) ;
#102 = FACE_OUTER_BOUND ( 'NONE', #117, .T. ) ;
#103 = DIRECTION ( 'NONE',  ( 0.0000000000000000000, 1.000000000000000000, 0.0000000000000000000 ) ) ;
#104 = CC_DESIGN_PERSON_AND_ORGANIZATION_ASSIGNMENT ( #37, #19, ( #13 ) ) ;
#105 = DIRECTION ( 'NONE',  ( -3.491481338843133355E-15, 1.224646799147353207E-16, -1.000000000000000000 ) ) ;
#106 = SECURITY_CLASSIFICATION ( '', '', #86 ) ;
#107 =( NAMED_UNIT ( * ) PLANE_ANGLE_UNIT ( ) SI_UNIT ( $, .RADIAN. ) );
#108 = DIRECTION ( 'NONE',  ( -3.491481338843133355E-15, 1.224646799147353207E-16, -1.000000000000000000 ) ) ;
#109 = DATE_AND_TIME ( #34, #66 ) ;
#110 = CARTESIAN_POINT ( 'NONE',  ( 1.955229549752154679E-13, 8.998558695971043013E-33, 56.00000000000000000 ) ) ;
#111 = APPROVAL ( #83, 'UNSPECIFIED' ) ;
#112 = PERSON_AND_ORGANIZATION ( #150, #40 ) ;
#113 = CC_DESIGN_APPROVAL ( #20, ( #13 ) ) ;
#114 = CARTESIAN_POINT ( 'NONE',  ( 0.0000000000000000000, 0.0000000000000000000, 0.0000000000000000000 ) ) ;
#115 = EDGE_LOOP ( 'NONE', ( #80 ) ) ;
#116 = LOCAL_TIME ( 15, 2, 9.000000000000000000, #128 ) ;
#117 = EDGE_LOOP ( 'NONE', ( #77 ) ) ;
#118 = DIRECTION ( 'NONE',  ( -3.491481338843133355E-15, 1.224646799147353207E-16, -1.000000000000000000 ) ) ;
#119 = CLOSED_SHELL ( 'NONE', ( #54, #74, #125, #211 ) ) ;
#120 = CYLINDRICAL_SURFACE ( 'NONE', #101, 1.499999999999997780 ) ;
#121 = CC_DESIGN_PERSON_AND_ORGANIZATION_ASSIGNMENT ( #206, #223, ( #28 ) ) ;
#122 = DIRECTION ( 'NONE',  ( 4.258551563045303698E-31, 1.000000000000000000, 1.198675702029304565E-16 ) ) ;
#123 = DIRECTION ( 'NONE',  ( -4.258551563045303698E-31, -1.000000000000000000, -1.198675702029304565E-16 ) ) ;
#124 = AXIS2_PLACEMENT_3D ( 'NONE', #12, #15, #140 ) ;
#125 = ADVANCED_FACE ( 'NONE', ( #102, #177 ), #71, .T. ) ;
#126 = APPROVAL_ROLE ( '' ) ;
#127 = DIRECTION ( 'NONE',  ( 4.275831445896958607E-31, 1.000000000000000000, 1.224646799147353207E-16 ) ) ;
#128 = COORDINATED_UNIVERSAL_TIME_OFFSET ( 1, 0, .AHEAD. ) ;
#129 = APPROVAL_DATE_TIME ( #168, #20 ) ;
#130 = DIRECTION ( 'NONE',  ( 3.491481338843133355E-15, -1.224646799147353207E-16, 1.000000000000000000 ) ) ;
#131 = DATE_AND_TIME ( #133, #73 ) ;
#132 = DIRECTION ( 'NONE',  ( 1.000000000000000000, 0.0000000000000000000, 0.0000000000000000000 ) ) ;
#133 = CALENDAR_DATE ( 2021, 30, 11 ) ;
#134 = CIRCLE ( 'NONE', #17, 1.200000000000000178 ) ;
#135 = VERTEX_POINT ( 'NONE', #209 ) ;
#136 = ADVANCED_FACE ( 'NONE', ( #212 ), #213, .F. ) ;
#137 = APPLICATION_CONTEXT ( 'configuration controlled 3d designs of mechanical parts and assemblies' ) ;
#138 = AXIS2_PLACEMENT_3D ( 'NONE', #185, #130, #3 ) ;
#139 = DIRECTION ( 'NONE',  ( 3.491481338843133355E-15, -1.224646799147353207E-16, 1.000000000000000000 ) ) ;
#140 = DIRECTION ( 'NONE',  ( 0.0000000000000000000, 1.000000000000000000, 0.0000000000000000000 ) ) ;
#141 = CARTESIAN_POINT ( 'NONE',  ( -3.333010612076679995E-31, 1.169062750584918246E-32, -9.546121799353619915E-17 ) ) ;
#142 = PERSON_AND_ORGANIZATION ( #150, #40 ) ;
#143 = COORDINATED_UNIVERSAL_TIME_OFFSET ( 1, 0, .AHEAD. ) ;
#144 = CARTESIAN_POINT ( 'NONE',  ( 0.0000000000000000000, 0.0000000000000000000, 0.0000000000000000000 ) ) ;
#145 = CC_DESIGN_SECURITY_CLASSIFICATION ( #106, ( #13 ) ) ;
#146 = PRODUCT_DEFINITION ( 'UNKNOWN', '', #13, #93 ) ;
#147 = CIRCLE ( 'NONE', #81, 1.809000000000002162 ) ;
#148 = CARTESIAN_POINT ( 'NONE',  ( -6.666021224153359990E-31, 2.338125501169836492E-32, -1.909224359870723983E-16 ) ) ;
#149 = PERSON_AND_ORGANIZATION ( #150, #40 ) ;
#150 = PERSON ( 'UNSPECIFIED', 'UNSPECIFIED', 'UNSPECIFIED', ('UNSPECIFIED'), ('UNSPECIFIED'), ('UNSPECIFIED') ) ;
#151 = ORIENTED_EDGE ( 'NONE', *, *, #237, .T. ) ;
#152 = DIRECTION ( 'NONE',  ( 4.275831445896959482E-31, 1.000000000000000000, 1.224646799147353207E-16 ) ) ;
#153 = CONICAL_SURFACE ( 'NONE', #98, 1.808999999999997499, 0.7853981633974426169 ) ;
#154 = CIRCLE ( 'NONE', #21, 1.499999999999999778 ) ;
#155 = EDGE_LOOP ( 'NONE', ( #41 ) ) ;
#156 = EDGE_LOOP ( 'NONE', ( #58 ) ) ;
#157 = FACE_OUTER_BOUND ( 'NONE', #194, .T. ) ;
#158 = CC_DESIGN_PERSON_AND_ORGANIZATION_ASSIGNMENT ( #112, #186, ( #13 ) ) ;
#159 = CARTESIAN_POINT ( 'NONE',  ( 1.955229549752154679E-13, -6.858022075225178552E-15, 56.00000000000000000 ) ) ;
#160 = DIRECTION ( 'NONE',  ( 0.0000000000000000000, 1.000000000000000000, 0.0000000000000000000 ) ) ;
#161 = COORDINATED_UNIVERSAL_TIME_OFFSET ( 1, 0, .AHEAD. ) ;
#162 = FACE_OUTER_BOUND ( 'NONE', #156, .T. ) ;
#163 = APPROVAL_STATUS ( 'not_yet_approved' ) ;
#164 = DIRECTION ( 'NONE',  ( 0.0000000000000000000, 1.000000000000000000, 0.0000000000000000000 ) ) ;
#165 = PERSON_AND_ORGANIZATION_ROLE ( 'creator' ) ;
#166 =( GEOMETRIC_REPRESENTATION_CONTEXT ( 3 ) GLOBAL_UNCERTAINTY_ASSIGNED_CONTEXT ( ( #226 ) ) GLOBAL_UNIT_ASSIGNED_CONTEXT ( ( #169, #107, #227 ) ) REPRESENTATION_CONTEXT ( 'NONE', 'WORKASPACE' ) );
#167 = EDGE_CURVE ( 'NONE', #87, #87, #154, .T. ) ;
#168 = DATE_AND_TIME ( #192, #171 ) ;
#169 =( LENGTH_UNIT ( ) NAMED_UNIT ( * ) SI_UNIT ( .MILLI., .METRE. ) );
#170 = EDGE_LOOP ( 'NONE', ( #151 ) ) ;
#171 = LOCAL_TIME ( 15, 2, 9.000000000000000000, #94 ) ;
#172 = ADVANCED_FACE ( 'NONE', ( #197 ), #84, .F. ) ;
#173 = EDGE_LOOP ( 'NONE', ( #62 ) ) ;
#174 = APPROVAL_PERSON_ORGANIZATION ( #14, #91, #241 ) ;
#175 = CC_DESIGN_PERSON_AND_ORGANIZATION_ASSIGNMENT ( #11, #235, ( #106 ) ) ;
#176 = CARTESIAN_POINT ( 'NONE',  ( 1.944755105735625216E-13, -6.821282671250756903E-15, 55.70000000000000284 ) ) ;
#177 = FACE_OUTER_BOUND ( 'NONE', #230, .T. ) ;
#178 = MANIFOLD_SOLID_BREP ( 'Corps-Déplacer/Copier1[1]', #85 ) ;
#179 = EDGE_CURVE ( 'NONE', #53, #53, #147, .T. ) ;
#180 = FACE_BOUND ( 'NONE', #115, .T. ) ;
#181 = APPROVAL_PERSON_ORGANIZATION ( #142, #111, #126 ) ;
#182 = APPLICATION_PROTOCOL_DEFINITION ( 'international standard', 'config_control_design', 1994, #70 ) ;
#183 = FACE_OUTER_BOUND ( 'NONE', #60, .T. ) ;
#184 = CARTESIAN_POINT ( 'NONE',  ( 1.944755105735625216E-13, 1.499999999999993117, 55.70000000000000284 ) ) ;
#185 = CARTESIAN_POINT ( 'NONE',  ( 6.982962677686265448E-14, 4.384500376863298957E-31, 19.99999999999999645 ) ) ;
#186 = PERSON_AND_ORGANIZATION_ROLE ( 'design_supplier' ) ;
#187 = CARTESIAN_POINT ( 'NONE',  ( 6.982962677686265448E-14, 1.808999999999999941, 19.99999999999999645 ) ) ;
#188 = CC_DESIGN_DATE_AND_TIME_ASSIGNMENT ( #68, #215, ( #106 ) ) ;
#189 = CARTESIAN_POINT ( 'NONE',  ( 7.169828050628217614E-14, -2.514837148047907067E-15, 20.53520369953879765 ) ) ;
#190 = CIRCLE ( 'NONE', #61, 1.559000000000000163 ) ;
#191 = CARTESIAN_POINT ( 'NONE',  ( 6.982962677686265448E-14, 1.808999999999999941, 19.99999999999999645 ) ) ;
#192 = CALENDAR_DATE ( 2021, 30, 11 ) ;
#193 = ORIENTED_EDGE ( 'NONE', *, *, #100, .F. ) ;
#194 = EDGE_LOOP ( 'NONE', ( #193 ) ) ;
#195 = AXIS2_PLACEMENT_3D ( 'NONE', #144, #220, #201 ) ;
#196 = DIRECTION ( 'NONE',  ( -4.275831445896958607E-31, -1.000000000000000000, -1.224646799147353207E-16 ) ) ;
#197 = FACE_OUTER_BOUND ( 'NONE', #229, .T. ) ;
#198 = FACE_OUTER_BOUND ( 'NONE', #96, .T. ) ;
#199 = APPLICATION_PROTOCOL_DEFINITION ( 'international standard', 'config_control_design', 1994, #137 ) ;
#200 = DATE_AND_TIME ( #218, #18 ) ;
#201 = DIRECTION ( 'NONE',  ( 4.275831445896958607E-31, 1.000000000000000000, 1.224646799147352961E-16 ) ) ;
#202 = CC_DESIGN_APPROVAL ( #111, ( #106 ) ) ;
#203 = PLANE ( 'NONE',  #138 ) ;
#204 = VERTEX_POINT ( 'NONE', #24 ) ;
#205 = DATE_TIME_ROLE ( 'creation_date' ) ;
#206 = PERSON_AND_ORGANIZATION ( #150, #40 ) ;
#207 = AXIS2_PLACEMENT_3D ( 'NONE', #8, #105, #122 ) ;
#208 = EDGE_LOOP ( 'NONE', ( #99 ) ) ;
#209 = CARTESIAN_POINT ( 'NONE',  ( 0.0000000000000000000, 1.559000000000000163, 0.0000000000000000000 ) ) ;
#210 = AXIS2_PLACEMENT_3D ( 'NONE', #159, #44, #67 ) ;
#211 = ADVANCED_FACE ( 'NONE', ( #55 ), #203, .T. ) ;
#212 = FACE_OUTER_BOUND ( 'NONE', #42, .T. ) ;
#213 = PLANE ( 'NONE',  #214 ) ;
#214 = AXIS2_PLACEMENT_3D ( 'NONE', #110, #51, #127 ) ;
#215 = DATE_TIME_ROLE ( 'classification_date' ) ;
#216 = DIRECTION ( 'NONE',  ( 0.0000000000000000000, 1.000000000000000000, 0.0000000000000000000 ) ) ;
#217 = EDGE_CURVE ( 'NONE', #135, #135, #190, .T. ) ;
#218 = CALENDAR_DATE ( 2021, 30, 11 ) ;
#219 = DIRECTION ( 'NONE',  ( -3.491481338843133355E-15, 1.224646799147353207E-16, -1.000000000000000000 ) ) ;
#220 = DIRECTION ( 'NONE',  ( -3.491481338843133355E-15, 1.224646799147353207E-16, -1.000000000000000000 ) ) ;
#221 = AXIS2_PLACEMENT_3D ( 'NONE', #141, #63, #240 ) ;
#222 = AXIS2_PLACEMENT_3D ( 'NONE', #189, #59, #57 ) ;
#223 = PERSON_AND_ORGANIZATION_ROLE ( 'design_owner' ) ;
#224 = CONICAL_SURFACE ( 'NONE', #5, 1.499999999999996003, 0.5235987755982941527 ) ;
#225 = CARTESIAN_POINT ( 'NONE',  ( 8.728703347107833388E-16, 1.808999999999997499, 0.2500000000000000000 ) ) ;
#226 = UNCERTAINTY_MEASURE_WITH_UNIT (LENGTH_MEASURE( 1.000000000000000082E-05 ), #169, 'distance_accuracy_value', 'NONE');
#227 =( NAMED_UNIT ( * ) SI_UNIT ( $, .STERADIAN. ) SOLID_ANGLE_UNIT ( ) );
#228 = ORIENTED_EDGE ( 'NONE', *, *, #100, .T. ) ;
#229 = EDGE_LOOP ( 'NONE', ( #228 ) ) ;
#230 = EDGE_LOOP ( 'NONE', ( #78 ) ) ;
#231 = CC_DESIGN_PERSON_AND_ORGANIZATION_ASSIGNMENT ( #52, #165, ( #146 ) ) ;
#232 = EDGE_LOOP ( 'NONE', ( #25 ) ) ;
#233 = PRODUCT_DEFINITION_SHAPE ( 'NONE', 'NONE',  #146 ) ;
#234 = DIRECTION ( 'NONE',  ( -3.491481338843133355E-15, 1.224646799147353207E-16, -1.000000000000000000 ) ) ;
#235 = PERSON_AND_ORGANIZATION_ROLE ( 'classification_officer' ) ;
#236 = FACE_OUTER_BOUND ( 'NONE', #208, .T. ) ;
#237 = EDGE_CURVE ( 'NONE', #204, #204, #38, .T. ) ;
#238 = FACE_BOUND ( 'NONE', #170, .T. ) ;
#239 = CIRCLE ( 'NONE', #124, 1.809000000000002162 ) ;
#240 = DIRECTION ( 'NONE',  ( -4.275831445896958607E-31, -1.000000000000000000, -1.224646799147353207E-16 ) ) ;
#241 = APPROVAL_ROLE ( '' ) ;
#242 = CARTESIAN_POINT ( 'NONE',  ( 8.728703347107825500E-16, -3.061616997868380553E-17, 0.2499999999999997780 ) ) ;
#243 = ADVANCED_BREP_SHAPE_REPRESENTATION ( '969425', ( #178, #26, #7 ), #166 ) ;
ENDSEC;
END-ISO-10303-21;
