ISO-10303-21;
HEADER;
FILE_DESCRIPTION (( 'STEP AP203' ),
    '1' );
FILE_NAME ('969424.step',
    '2021-11-30T14:02:08',
    ( '' ),
    ( '' ),
    'SwSTEP 2.0',
    'SolidWorks 2019',
    '' );
FILE_SCHEMA (( 'CONFIG_CONTROL_DESIGN' ));
ENDSEC;

DATA;
#1 = DIRECTION ( 'NONE',  ( -4.275831445896958607E-31, -1.000000000000000000, -1.224646799147353207E-16 ) ) ;
#2 = ADVANCED_FACE ( 'NONE', ( #104 ), #39, .F. ) ;
#3 = CARTESIAN_POINT ( 'NONE',  ( 8.728703347107827472E-16, -3.061616997868381169E-17, 0.2499999999999998335 ) ) ;
#4 = AXIS2_PLACEMENT_3D ( 'NONE', #37, #208, #120 ) ;
#5 = LOCAL_TIME ( 15, 2, 8.000000000000000000, #220 ) ;
#6 = CARTESIAN_POINT ( 'NONE',  ( 0.0000000000000000000, 0.0000000000000000000, 0.0000000000000000000 ) ) ;
#7 = DIRECTION ( 'NONE',  ( 4.275831445896959482E-31, 1.000000000000000000, 1.224646799147353207E-16 ) ) ;
#8 = EDGE_CURVE ( 'NONE', #198, #198, #189, .T. ) ;
#9 = CARTESIAN_POINT ( 'NONE',  ( 1.955229549752154679E-13, -6.858022075225178552E-15, 56.00000000000000000 ) ) ;
#10 = AXIS2_PLACEMENT_3D ( 'NONE', #118, #225, #211 ) ;
#11 = FACE_BOUND ( 'NONE', #73, .T. ) ;
#12 = DIRECTION ( 'NONE',  ( 0.0000000000000000000, 0.0000000000000000000, 1.000000000000000000 ) ) ;
#13 = DIRECTION ( 'NONE',  ( -3.491481338843133355E-15, 1.224646799147353207E-16, -1.000000000000000000 ) ) ;
#14 = CIRCLE ( 'NONE', #10, 1.554000000000000492 ) ;
#15 = ORIENTED_EDGE ( 'NONE', *, *, #85, .T. ) ;
#16 = CC_DESIGN_APPROVAL ( #32, ( #72 ) ) ;
#17 = DIRECTION ( 'NONE',  ( 3.491481338843133355E-15, -1.224646799147353207E-16, 1.000000000000000000 ) ) ;
#18 = ADVANCED_FACE ( 'NONE', ( #58 ), #138, .F. ) ;
#19 = DIRECTION ( 'NONE',  ( 0.0000000000000000000, 1.000000000000000000, 0.0000000000000000000 ) ) ;
#20 = ORIENTED_EDGE ( 'NONE', *, *, #85, .F. ) ;
#21 = PERSON_AND_ORGANIZATION ( #99, #215 ) ;
#22 = DIRECTION ( 'NONE',  ( 0.0000000000000000000, 1.000000000000000000, 0.0000000000000000000 ) ) ;
#23 = PERSON_AND_ORGANIZATION_ROLE ( 'creator' ) ;
#24 = FACE_BOUND ( 'NONE', #96, .T. ) ;
#25 = DATE_TIME_ROLE ( 'classification_date' ) ;
#26 = AXIS2_PLACEMENT_3D ( 'NONE', #101, #33, #172 ) ;
#27 = CARTESIAN_POINT ( 'NONE',  ( 7.166804339091940741E-14, -2.513776572809182418E-15, 20.52654344550095189 ) ) ;
#28 = CC_DESIGN_PERSON_AND_ORGANIZATION_ASSIGNMENT ( #80, #179, ( #115 ) ) ;
#29 = CARTESIAN_POINT ( 'NONE',  ( 6.982962677686266711E-14, 1.803999999999996495, 20.00000000000000000 ) ) ;
#30 = PERSON_AND_ORGANIZATION ( #99, #215 ) ;
#31 = CONICAL_SURFACE ( 'NONE', #64, 1.200000000000000178, 0.7853981633974450594 ) ;
#32 = APPROVAL ( #159, 'UNSPECIFIED' ) ;
#33 = DIRECTION ( 'NONE',  ( -3.491481338843133355E-15, 1.224646799147353207E-16, -1.000000000000000000 ) ) ;
#34 = CC_DESIGN_PERSON_AND_ORGANIZATION_ASSIGNMENT ( #21, #105, ( #86 ) ) ;
#35 = CARTESIAN_POINT ( 'NONE',  ( 0.0000000000000000000, 0.0000000000000000000, 0.0000000000000000000 ) ) ;
#36 = DIRECTION ( 'NONE',  ( -3.491481338843133355E-15, 1.224646799147353207E-16, -1.000000000000000000 ) ) ;
#37 = CARTESIAN_POINT ( 'NONE',  ( 7.166804339091940741E-14, -2.513776572809182418E-15, 20.52654344550095189 ) ) ;
#38 = LOCAL_TIME ( 15, 2, 8.000000000000000000, #155 ) ;
#39 = PLANE ( 'NONE',  #166 ) ;
#40 = FACE_OUTER_BOUND ( 'NONE', #128, .T. ) ;
#41 = PERSON_AND_ORGANIZATION ( #99, #215 ) ;
#42 = EDGE_CURVE ( 'NONE', #216, #216, #181, .T. ) ;
#43 = FACE_OUTER_BOUND ( 'NONE', #74, .T. ) ;
#44 = CARTESIAN_POINT ( 'NONE',  ( 6.982962677686266711E-14, 1.803999999999996495, 20.00000000000000000 ) ) ;
#45 = CALENDAR_DATE ( 2021, 30, 11 ) ;
#46 = APPLICATION_CONTEXT ( 'configuration controlled 3d designs of mechanical parts and assemblies' ) ;
#47 = ORIENTED_EDGE ( 'NONE', *, *, #8, .F. ) ;
#48 = CALENDAR_DATE ( 2021, 30, 11 ) ;
#49 = ORIENTED_EDGE ( 'NONE', *, *, #95, .F. ) ;
#50 = DATE_AND_TIME ( #48, #5 ) ;
#51 = EDGE_LOOP ( 'NONE', ( #154 ) ) ;
#52 = APPROVAL_DATE_TIME ( #50, #190 ) ;
#53 = CYLINDRICAL_SURFACE ( 'NONE', #167, 1.499999999999997780 ) ;
#54 = FACE_OUTER_BOUND ( 'NONE', #75, .T. ) ;
#55 = APPROVAL_PERSON_ORGANIZATION ( #238, #190, #165 ) ;
#56 = DIRECTION ( 'NONE',  ( 3.491481338843133355E-15, -1.224646799147353207E-16, 1.000000000000000000 ) ) ;
#57 = COORDINATED_UNIVERSAL_TIME_OFFSET ( 1, 0, .AHEAD. ) ;
#58 = FACE_OUTER_BOUND ( 'NONE', #51, .T. ) ;
#59 = DIRECTION ( 'NONE',  ( -3.491481338843133355E-15, 1.224646799147353207E-16, -1.000000000000000000 ) ) ;
#60 = VERTEX_POINT ( 'NONE', #89 ) ;
#61 = APPROVAL_ROLE ( '' ) ;
#62 = PERSON_AND_ORGANIZATION ( #99, #215 ) ;
#63 = AXIS2_PLACEMENT_3D ( 'NONE', #134, #210, #153 ) ;
#64 = AXIS2_PLACEMENT_3D ( 'NONE', #9, #83, #158 ) ;
#65 =( LENGTH_UNIT ( ) NAMED_UNIT ( * ) SI_UNIT ( .MILLI., .METRE. ) );
#66 = CC_DESIGN_APPROVAL ( #203, ( #86 ) ) ;
#67 = EDGE_CURVE ( 'NONE', #196, #196, #239, .T. ) ;
#68 = PERSON_AND_ORGANIZATION_ROLE ( 'creator' ) ;
#69 = PRODUCT ( '969424', '969424', '', ( #90 ) ) ;
#70 = AXIS2_PLACEMENT_3D ( 'NONE', #3, #17, #226 ) ;
#71 =( GEOMETRIC_REPRESENTATION_CONTEXT ( 3 ) GLOBAL_UNCERTAINTY_ASSIGNED_CONTEXT ( ( #205 ) ) GLOBAL_UNIT_ASSIGNED_CONTEXT ( ( #65, #106, #107 ) ) REPRESENTATION_CONTEXT ( 'NONE', 'WORKASPACE' ) );
#72 = PRODUCT_DEFINITION ( 'UNKNOWN', '', #115, #224 ) ;
#73 = EDGE_LOOP ( 'NONE', ( #136 ) ) ;
#74 = EDGE_LOOP ( 'NONE', ( #49 ) ) ;
#75 = EDGE_LOOP ( 'NONE', ( #112 ) ) ;
#76 = DIRECTION ( 'NONE',  ( -4.275831445896958607E-31, -1.000000000000000000, -1.224646799147353207E-16 ) ) ;
#77 = FACE_OUTER_BOUND ( 'NONE', #131, .T. ) ;
#78 = EDGE_LOOP ( 'NONE', ( #110 ) ) ;
#79 = ADVANCED_FACE ( 'NONE', ( #170, #139 ), #53, .T. ) ;
#80 = PERSON_AND_ORGANIZATION ( #99, #215 ) ;
#81 = CARTESIAN_POINT ( 'NONE',  ( 6.982962677686266711E-14, 1.352783323960990986E-32, 20.00000000000000000 ) ) ;
#82 = PERSON_AND_ORGANIZATION ( #99, #215 ) ;
#83 = DIRECTION ( 'NONE',  ( -3.491481338843133355E-15, 1.224646799147353207E-16, -1.000000000000000000 ) ) ;
#84 = AXIS2_PLACEMENT_3D ( 'NONE', #121, #132, #22 ) ;
#85 = EDGE_CURVE ( 'NONE', #60, #60, #130, .T. ) ;
#86 = SECURITY_CLASSIFICATION ( '', '', #193 ) ;
#87 = PERSON_AND_ORGANIZATION_ROLE ( 'design_owner' ) ;
#88 = APPROVAL_DATE_TIME ( #194, #32 ) ;
#89 = CARTESIAN_POINT ( 'NONE',  ( 1.955229549752154679E-13, 1.199999999999993072, 56.00000000000000000 ) ) ;
#90 = MECHANICAL_CONTEXT ( 'NONE', #46, 'mechanical' ) ;
#91 = CARTESIAN_POINT ( 'NONE',  ( 1.944755105735625216E-13, 1.499999999999993117, 55.70000000000000284 ) ) ;
#92 = ADVANCED_FACE ( 'NONE', ( #116, #191 ), #114, .T. ) ;
#93 = EDGE_LOOP ( 'NONE', ( #202 ) ) ;
#94 = EDGE_LOOP ( 'NONE', ( #223 ) ) ;
#95 = EDGE_CURVE ( 'NONE', #142, #142, #113, .T. ) ;
#96 = EDGE_LOOP ( 'NONE', ( #151 ) ) ;
#97 = LOCAL_TIME ( 15, 2, 8.000000000000000000, #143 ) ;
#98 = PLANE ( 'NONE',  #146 ) ;
#99 = PERSON ( 'UNSPECIFIED', 'UNSPECIFIED', 'UNSPECIFIED', ('UNSPECIFIED'), ('UNSPECIFIED'), ('UNSPECIFIED') ) ;
#100 = EDGE_LOOP ( 'NONE', ( #47 ) ) ;
#101 = CARTESIAN_POINT ( 'NONE',  ( 8.728703347107827472E-16, -3.061616997868381169E-17, 0.2499999999999998335 ) ) ;
#102 = CONICAL_SURFACE ( 'NONE', #240, 1.499999999999996003, 0.5235987755982914882 ) ;
#103 = DIRECTION ( 'NONE',  ( -3.491481338843133355E-15, 1.224646799147353207E-16, -1.000000000000000000 ) ) ;
#104 = FACE_OUTER_BOUND ( 'NONE', #185, .T. ) ;
#105 = PERSON_AND_ORGANIZATION_ROLE ( 'classification_officer' ) ;
#106 =( NAMED_UNIT ( * ) PLANE_ANGLE_UNIT ( ) SI_UNIT ( $, .RADIAN. ) );
#107 =( NAMED_UNIT ( * ) SI_UNIT ( $, .STERADIAN. ) SOLID_ANGLE_UNIT ( ) );
#108 = MANIFOLD_SOLID_BREP ( 'Corps-Déplacer/Copier1[1]', #119 ) ;
#109 = APPLICATION_PROTOCOL_DEFINITION ( 'international standard', 'config_control_design', 1994, #46 ) ;
#110 = ORIENTED_EDGE ( 'NONE', *, *, #175, .F. ) ;
#111 = APPROVAL_PERSON_ORGANIZATION ( #41, #32, #61 ) ;
#112 = ORIENTED_EDGE ( 'NONE', *, *, #42, .F. ) ;
#113 = CIRCLE ( 'NONE', #162, 1.803999999999998938 ) ;
#114 = CYLINDRICAL_SURFACE ( 'NONE', #231, 1.803999999999998272 ) ;
#115 = PRODUCT_DEFINITION_FORMATION_WITH_SPECIFIED_SOURCE ( 'ANY', '', #69, .NOT_KNOWN. ) ;
#116 = FACE_OUTER_BOUND ( 'NONE', #78, .T. ) ;
#117 = CC_DESIGN_DATE_AND_TIME_ASSIGNMENT ( #199, #184, ( #72 ) ) ;
#118 = CARTESIAN_POINT ( 'NONE',  ( 9.263012386087698217E-32, -3.249027380694314856E-33, 2.653032190960213601E-17 ) ) ;
#119 = CLOSED_SHELL ( 'NONE', ( #2, #218, #79, #213, #232 ) ) ;
#120 = DIRECTION ( 'NONE',  ( 0.0000000000000000000, 1.000000000000000000, 0.0000000000000000000 ) ) ;
#121 = CARTESIAN_POINT ( 'NONE',  ( 1.955229549752154679E-13, -6.858022075225178552E-15, 56.00000000000000000 ) ) ;
#122 = DIRECTION ( 'NONE',  ( 1.000000000000000000, 0.0000000000000000000, 0.0000000000000000000 ) ) ;
#123 = DATE_AND_TIME ( #171, #182 ) ;
#124 = CALENDAR_DATE ( 2021, 30, 11 ) ;
#125 = DIRECTION ( 'NONE',  ( 4.275831445896958607E-31, 1.000000000000000000, 1.224646799147353207E-16 ) ) ;
#126 = EDGE_CURVE ( 'NONE', #241, #241, #14, .T. ) ;
#127 = CARTESIAN_POINT ( 'NONE',  ( 7.570943305532644550E-31, 1.554000000000000492, 2.168404344971008868E-16 ) ) ;
#128 = EDGE_LOOP ( 'NONE', ( #20 ) ) ;
#129 = PRODUCT_DEFINITION_SHAPE ( 'NONE', 'NONE',  #72 ) ;
#130 = CIRCLE ( 'NONE', #84, 1.200000000000000178 ) ;
#131 = EDGE_LOOP ( 'NONE', ( #221 ) ) ;
#132 = DIRECTION ( 'NONE',  ( -3.491481338843133355E-15, 1.224646799147353207E-16, -1.000000000000000000 ) ) ;
#133 = CIRCLE ( 'NONE', #26, 1.803999999999997605 ) ;
#134 = CARTESIAN_POINT ( 'NONE',  ( 4.631506193043849109E-32, -1.624513690347157428E-33, 1.326516095480106801E-17 ) ) ;
#135 = ADVANCED_FACE ( 'NONE', ( #24, #77 ), #200, .T. ) ;
#136 = ORIENTED_EDGE ( 'NONE', *, *, #67, .T. ) ;
#137 = APPLICATION_CONTEXT ( 'configuration controlled 3d designs of mechanical parts and assemblies' ) ;
#138 = PLANE ( 'NONE',  #63 ) ;
#139 = FACE_OUTER_BOUND ( 'NONE', #168, .T. ) ;
#140 = CC_DESIGN_SECURITY_CLASSIFICATION ( #86, ( #115 ) ) ;
#141 = SHAPE_DEFINITION_REPRESENTATION ( #129, #152 ) ;
#142 = VERTEX_POINT ( 'NONE', #29 ) ;
#143 = COORDINATED_UNIVERSAL_TIME_OFFSET ( 1, 0, .AHEAD. ) ;
#144 = PLANE ( 'NONE',  #163 ) ;
#145 = PRODUCT_RELATED_PRODUCT_CATEGORY ( 'detail', '', ( #69 ) ) ;
#146 = AXIS2_PLACEMENT_3D ( 'NONE', #81, #156, #1 ) ;
#147 = LOCAL_TIME ( 15, 2, 8.000000000000000000, #219 ) ;
#148 = ORIENTED_EDGE ( 'NONE', *, *, #95, .T. ) ;
#149 = CC_DESIGN_APPROVAL ( #190, ( #115 ) ) ;
#150 = ORIENTED_EDGE ( 'NONE', *, *, #8, .T. ) ;
#151 = ORIENTED_EDGE ( 'NONE', *, *, #126, .F. ) ;
#152 = ADVANCED_BREP_SHAPE_REPRESENTATION ( '969424', ( #108, #183, #195 ), #71 ) ;
#153 = DIRECTION ( 'NONE',  ( -4.275831445896958607E-31, -1.000000000000000000, -1.224646799147353207E-16 ) ) ;
#154 = ORIENTED_EDGE ( 'NONE', *, *, #126, .T. ) ;
#155 = COORDINATED_UNIVERSAL_TIME_OFFSET ( 1, 0, .AHEAD. ) ;
#156 = DIRECTION ( 'NONE',  ( 3.491481338843133355E-15, -1.224646799147353207E-16, 1.000000000000000000 ) ) ;
#157 = AXIS2_PLACEMENT_3D ( 'NONE', #206, #59, #228 ) ;
#158 = DIRECTION ( 'NONE',  ( 0.0000000000000000000, 1.000000000000000000, 0.0000000000000000000 ) ) ;
#159 = APPROVAL_STATUS ( 'not_yet_approved' ) ;
#160 = CARTESIAN_POINT ( 'NONE',  ( 1.955229549752154679E-13, 8.998558695971043013E-33, 56.00000000000000000 ) ) ;
#161 = CC_DESIGN_PERSON_AND_ORGANIZATION_ASSIGNMENT ( #30, #68, ( #72 ) ) ;
#162 = AXIS2_PLACEMENT_3D ( 'NONE', #169, #174, #19 ) ;
#163 = AXIS2_PLACEMENT_3D ( 'NONE', #160, #13, #125 ) ;
#164 = PERSON_AND_ORGANIZATION ( #99, #215 ) ;
#165 = APPROVAL_ROLE ( '' ) ;
#166 = AXIS2_PLACEMENT_3D ( 'NONE', #192, #56, #76 ) ;
#167 = AXIS2_PLACEMENT_3D ( 'NONE', #35, #186, #7 ) ;
#168 = EDGE_LOOP ( 'NONE', ( #150 ) ) ;
#169 = CARTESIAN_POINT ( 'NONE',  ( 6.982962677686266711E-14, -2.449293598294706513E-15, 20.00000000000000000 ) ) ;
#170 = FACE_OUTER_BOUND ( 'NONE', #93, .T. ) ;
#171 = CALENDAR_DATE ( 2021, 30, 11 ) ;
#172 = DIRECTION ( 'NONE',  ( 4.270354643874142761E-31, 1.000000000000000000, 1.201997973930716030E-16 ) ) ;
#173 = APPROVAL_DATE_TIME ( #123, #203 ) ;
#174 = DIRECTION ( 'NONE',  ( -3.491481338843133355E-15, 1.224646799147353207E-16, -1.000000000000000000 ) ) ;
#175 = EDGE_CURVE ( 'NONE', #178, #178, #133, .T. ) ;
#176 = FACE_BOUND ( 'NONE', #204, .T. ) ;
#177 = APPROVAL_STATUS ( 'not_yet_approved' ) ;
#178 = VERTEX_POINT ( 'NONE', #212 ) ;
#179 = PERSON_AND_ORGANIZATION_ROLE ( 'design_supplier' ) ;
#180 = CARTESIAN_POINT ( 'NONE',  ( 0.0000000000000000000, 0.0000000000000000000, 0.0000000000000000000 ) ) ;
#181 = CIRCLE ( 'NONE', #207, 1.803999999999998938 ) ;
#182 = LOCAL_TIME ( 15, 2, 8.000000000000000000, #57 ) ;
#183 = MANIFOLD_SOLID_BREP ( 'Corps-Déplacer/Copier1[2]', #214 ) ;
#184 = DATE_TIME_ROLE ( 'creation_date' ) ;
#185 = EDGE_LOOP ( 'NONE', ( #148 ) ) ;
#186 = DIRECTION ( 'NONE',  ( -3.491481338843133355E-15, 1.224646799147353207E-16, -1.000000000000000000 ) ) ;
#187 = DIRECTION ( 'NONE',  ( 4.275831445896958607E-31, 1.000000000000000000, 1.224646799147353207E-16 ) ) ;
#188 = CARTESIAN_POINT ( 'NONE',  ( 6.982962677686266711E-14, -2.449293598294706513E-15, 20.00000000000000000 ) ) ;
#189 = CIRCLE ( 'NONE', #157, 1.499999999999999778 ) ;
#190 = APPROVAL ( #217, 'UNSPECIFIED' ) ;
#191 = FACE_OUTER_BOUND ( 'NONE', #94, .T. ) ;
#192 = CARTESIAN_POINT ( 'NONE',  ( 6.982962677686266711E-14, 1.352783323960990986E-32, 20.00000000000000000 ) ) ;
#193 = SECURITY_CLASSIFICATION_LEVEL ( 'unclassified' ) ;
#194 = DATE_AND_TIME ( #124, #97 ) ;
#195 = AXIS2_PLACEMENT_3D ( 'NONE', #180, #12, #122 ) ;
#196 = VERTEX_POINT ( 'NONE', #234 ) ;
#197 = CC_DESIGN_PERSON_AND_ORGANIZATION_ASSIGNMENT ( #82, #23, ( #115 ) ) ;
#198 = VERTEX_POINT ( 'NONE', #91 ) ;
#199 = DATE_AND_TIME ( #45, #147 ) ;
#200 = CONICAL_SURFACE ( 'NONE', #70, 1.803999999999997605, 0.7853981633974428389 ) ;
#201 = ADVANCED_FACE ( 'NONE', ( #54 ), #98, .T. ) ;
#202 = ORIENTED_EDGE ( 'NONE', *, *, #67, .F. ) ;
#203 = APPROVAL ( #177, 'UNSPECIFIED' ) ;
#204 = EDGE_LOOP ( 'NONE', ( #15 ) ) ;
#205 = UNCERTAINTY_MEASURE_WITH_UNIT (LENGTH_MEASURE( 1.000000000000000082E-05 ), #65, 'distance_accuracy_value', 'NONE');
#206 = CARTESIAN_POINT ( 'NONE',  ( 1.944755105735625216E-13, -6.821282671250756903E-15, 55.70000000000000284 ) ) ;
#207 = AXIS2_PLACEMENT_3D ( 'NONE', #188, #103, #209 ) ;
#208 = DIRECTION ( 'NONE',  ( -3.491481338843133355E-15, 1.224646799147353207E-16, -1.000000000000000000 ) ) ;
#209 = DIRECTION ( 'NONE',  ( 0.0000000000000000000, 1.000000000000000000, 0.0000000000000000000 ) ) ;
#210 = DIRECTION ( 'NONE',  ( 3.491481338843133355E-15, -1.224646799147353207E-16, 1.000000000000000000 ) ) ;
#211 = DIRECTION ( 'NONE',  ( 4.275831445896958607E-31, 1.000000000000000000, 1.224646799147353207E-16 ) ) ;
#212 = CARTESIAN_POINT ( 'NONE',  ( 8.728703347107835360E-16, 1.803999999999997605, 0.2500000000000000555 ) ) ;
#213 = ADVANCED_FACE ( 'NONE', ( #230, #176 ), #31, .T. ) ;
#214 = CLOSED_SHELL ( 'NONE', ( #18, #135, #92, #201 ) ) ;
#215 = ORGANIZATION ( 'UNSPECIFIED', 'UNSPECIFIED', '' ) ;
#216 = VERTEX_POINT ( 'NONE', #44 ) ;
#217 = APPROVAL_STATUS ( 'not_yet_approved' ) ;
#218 = ADVANCED_FACE ( 'NONE', ( #43, #11 ), #102, .T. ) ;
#219 = COORDINATED_UNIVERSAL_TIME_OFFSET ( 1, 0, .AHEAD. ) ;
#220 = COORDINATED_UNIVERSAL_TIME_OFFSET ( 1, 0, .AHEAD. ) ;
#221 = ORIENTED_EDGE ( 'NONE', *, *, #175, .T. ) ;
#222 = APPROVAL_PERSON_ORGANIZATION ( #62, #203, #229 ) ;
#223 = ORIENTED_EDGE ( 'NONE', *, *, #42, .T. ) ;
#224 = DESIGN_CONTEXT ( 'detailed design', #137, 'design' ) ;
#225 = DIRECTION ( 'NONE',  ( -3.491481338843133355E-15, 1.224646799147353207E-16, -1.000000000000000000 ) ) ;
#226 = DIRECTION ( 'NONE',  ( -4.270354643874142761E-31, -1.000000000000000000, -1.201997973930716030E-16 ) ) ;
#227 = CC_DESIGN_DATE_AND_TIME_ASSIGNMENT ( #233, #25, ( #86 ) ) ;
#228 = DIRECTION ( 'NONE',  ( 0.0000000000000000000, 1.000000000000000000, 0.0000000000000000000 ) ) ;
#229 = APPROVAL_ROLE ( '' ) ;
#230 = FACE_OUTER_BOUND ( 'NONE', #100, .T. ) ;
#231 = AXIS2_PLACEMENT_3D ( 'NONE', #6, #36, #187 ) ;
#232 = ADVANCED_FACE ( 'NONE', ( #40 ), #144, .F. ) ;
#233 = DATE_AND_TIME ( #236, #38 ) ;
#234 = CARTESIAN_POINT ( 'NONE',  ( 7.166804339091940741E-14, 1.499999999999993339, 20.52654344550095189 ) ) ;
#235 = DIRECTION ( 'NONE',  ( -3.491481338843133355E-15, 1.224646799147353207E-16, -1.000000000000000000 ) ) ;
#236 = CALENDAR_DATE ( 2021, 30, 11 ) ;
#237 = DIRECTION ( 'NONE',  ( 0.0000000000000000000, 1.000000000000000000, 0.0000000000000000000 ) ) ;
#238 = PERSON_AND_ORGANIZATION ( #99, #215 ) ;
#239 = CIRCLE ( 'NONE', #4, 1.499999999999996003 ) ;
#240 = AXIS2_PLACEMENT_3D ( 'NONE', #27, #235, #237 ) ;
#241 = VERTEX_POINT ( 'NONE', #127 ) ;
#242 = APPLICATION_PROTOCOL_DEFINITION ( 'international standard', 'config_control_design', 1994, #137 ) ;
#243 = CC_DESIGN_PERSON_AND_ORGANIZATION_ASSIGNMENT ( #164, #87, ( #69 ) ) ;
ENDSEC;
END-ISO-10303-21;
