ISO-10303-21;
HEADER;
FILE_DESCRIPTION (( 'STEP AP203' ),
    '1' );
FILE_NAME ('969423.step',
    '2021-11-30T14:02:08',
    ( '' ),
    ( '' ),
    'SwSTEP 2.0',
    'SolidWorks 2019',
    '' );
FILE_SCHEMA (( 'CONFIG_CONTROL_DESIGN' ));
ENDSEC;

DATA;
#1 = DIRECTION ( 'NONE',  ( -4.275831445896958607E-31, -1.000000000000000000, -1.224646799147353207E-16 ) ) ;
#2 = DIRECTION ( 'NONE',  ( 1.000000000000000000, 0.0000000000000000000, 0.0000000000000000000 ) ) ;
#3 = ADVANCED_FACE ( 'NONE', ( #80 ), #101, .F. ) ;
#4 = FACE_BOUND ( 'NONE', #126, .T. ) ;
#5 = CALENDAR_DATE ( 2021, 30, 11 ) ;
#6 = CARTESIAN_POINT ( 'NONE',  ( 8.728703347107827472E-16, -3.061616997868381169E-17, 0.2499999999999998335 ) ) ;
#7 = SECURITY_CLASSIFICATION ( '', '', #64 ) ;
#8 = DATE_AND_TIME ( #100, #72 ) ;
#9 = DIRECTION ( 'NONE',  ( 0.0000000000000000000, 1.000000000000000000, 0.0000000000000000000 ) ) ;
#10 = APPROVAL_DATE_TIME ( #195, #181 ) ;
#11 = AXIS2_PLACEMENT_3D ( 'NONE', #76, #194, #154 ) ;
#12 = CIRCLE ( 'NONE', #225, 1.794000000000002926 ) ;
#13 = CC_DESIGN_DATE_AND_TIME_ASSIGNMENT ( #8, #29, ( #7 ) ) ;
#14 = ORIENTED_EDGE ( 'NONE', *, *, #166, .F. ) ;
#15 = AXIS2_PLACEMENT_3D ( 'NONE', #130, #205, #62 ) ;
#16 = AXIS2_PLACEMENT_3D ( 'NONE', #49, #140, #2 ) ;
#17 = APPROVAL ( #138, 'UNSPECIFIED' ) ;
#18 = PLANE ( 'NONE',  #15 ) ;
#19 = FACE_OUTER_BOUND ( 'NONE', #144, .T. ) ;
#20 = APPROVAL_PERSON_ORGANIZATION ( #174, #115, #214 ) ;
#21 = ORIENTED_EDGE ( 'NONE', *, *, #228, .F. ) ;
#22 = AXIS2_PLACEMENT_3D ( 'NONE', #242, #73, #232 ) ;
#23 = DATE_AND_TIME ( #193, #241 ) ;
#24 = CYLINDRICAL_SURFACE ( 'NONE', #110, 1.499999999999997780 ) ;
#25 = PERSON_AND_ORGANIZATION_ROLE ( 'design_supplier' ) ;
#26 = FACE_OUTER_BOUND ( 'NONE', #143, .T. ) ;
#27 = CALENDAR_DATE ( 2021, 30, 11 ) ;
#28 = CARTESIAN_POINT ( 'NONE',  ( 1.955229549752154679E-13, 1.199999999999993072, 56.00000000000000000 ) ) ;
#29 = DATE_TIME_ROLE ( 'classification_date' ) ;
#30 = COORDINATED_UNIVERSAL_TIME_OFFSET ( 1, 0, .AHEAD. ) ;
#31 = ADVANCED_FACE ( 'NONE', ( #82, #19 ), #176, .T. ) ;
#32 = CC_DESIGN_APPROVAL ( #17, ( #203 ) ) ;
#33 = EDGE_LOOP ( 'NONE', ( #14 ) ) ;
#34 = AXIS2_PLACEMENT_3D ( 'NONE', #175, #45, #152 ) ;
#35 = AXIS2_PLACEMENT_3D ( 'NONE', #207, #224, #189 ) ;
#36 = FACE_OUTER_BOUND ( 'NONE', #50, .T. ) ;
#37 = DIRECTION ( 'NONE',  ( 0.0000000000000000000, 1.000000000000000000, 0.0000000000000000000 ) ) ;
#38 = ORIENTED_EDGE ( 'NONE', *, *, #68, .F. ) ;
#39 = CC_DESIGN_PERSON_AND_ORGANIZATION_ASSIGNMENT ( #46, #25, ( #203 ) ) ;
#40 = COORDINATED_UNIVERSAL_TIME_OFFSET ( 1, 0, .AHEAD. ) ;
#41 = APPLICATION_PROTOCOL_DEFINITION ( 'international standard', 'config_control_design', 1994, #202 ) ;
#42 = CARTESIAN_POINT ( 'NONE',  ( 6.982962677686265448E-14, -2.449293598294706119E-15, 19.99999999999999645 ) ) ;
#43 = DESIGN_CONTEXT ( 'detailed design', #171, 'design' ) ;
#44 = APPROVAL_STATUS ( 'not_yet_approved' ) ;
#45 = DIRECTION ( 'NONE',  ( -3.491481338843133355E-15, 1.224646799147353207E-16, -1.000000000000000000 ) ) ;
#46 = PERSON_AND_ORGANIZATION ( #243, #153 ) ;
#47 = EDGE_CURVE ( 'NONE', #84, #84, #79, .T. ) ;
#48 = DIRECTION ( 'NONE',  ( 4.275831445896958607E-31, 1.000000000000000000, 1.224646799147353207E-16 ) ) ;
#49 = CARTESIAN_POINT ( 'NONE',  ( 0.0000000000000000000, 0.0000000000000000000, 0.0000000000000000000 ) ) ;
#50 = EDGE_LOOP ( 'NONE', ( #182 ) ) ;
#51 = ADVANCED_FACE ( 'NONE', ( #54 ), #18, .F. ) ;
#52 = EDGE_LOOP ( 'NONE', ( #21 ) ) ;
#53 = EDGE_LOOP ( 'NONE', ( #38 ) ) ;
#54 = FACE_OUTER_BOUND ( 'NONE', #180, .T. ) ;
#55 = AXIS2_PLACEMENT_3D ( 'NONE', #109, #213, #135 ) ;
#56 = FACE_OUTER_BOUND ( 'NONE', #239, .T. ) ;
#57 = DIRECTION ( 'NONE',  ( 4.275831445896958607E-31, 1.000000000000000000, 1.224646799147353207E-16 ) ) ;
#58 = PRODUCT_DEFINITION ( 'UNKNOWN', '', #203, #43 ) ;
#59 = CLOSED_SHELL ( 'NONE', ( #51, #148, #170, #186, #196 ) ) ;
#60 = CC_DESIGN_PERSON_AND_ORGANIZATION_ASSIGNMENT ( #201, #114, ( #58 ) ) ;
#61 = DIRECTION ( 'NONE',  ( -3.491481338843133355E-15, 1.224646799147353207E-16, -1.000000000000000000 ) ) ;
#62 = DIRECTION ( 'NONE',  ( -4.275831445896958607E-31, -1.000000000000000000, -1.224646799147353207E-16 ) ) ;
#63 = AXIS2_PLACEMENT_3D ( 'NONE', #150, #61, #57 ) ;
#64 = SECURITY_CLASSIFICATION_LEVEL ( 'unclassified' ) ;
#65 = PERSON_AND_ORGANIZATION ( #243, #153 ) ;
#66 = VERTEX_POINT ( 'NONE', #139 ) ;
#67 = COORDINATED_UNIVERSAL_TIME_OFFSET ( 1, 0, .AHEAD. ) ;
#68 = EDGE_CURVE ( 'NONE', #158, #158, #229, .T. ) ;
#69 = EDGE_LOOP ( 'NONE', ( #223 ) ) ;
#70 = ORIENTED_EDGE ( 'NONE', *, *, #106, .F. ) ;
#71 = AXIS2_PLACEMENT_3D ( 'NONE', #137, #159, #9 ) ;
#72 = LOCAL_TIME ( 15, 2, 8.000000000000000000, #136 ) ;
#73 = DIRECTION ( 'NONE',  ( 3.491481338843133355E-15, -1.224646799147353207E-16, 1.000000000000000000 ) ) ;
#74 = FACE_OUTER_BOUND ( 'NONE', #52, .T. ) ;
#75 = PRODUCT_RELATED_PRODUCT_CATEGORY ( 'detail', '', ( #151 ) ) ;
#76 = CARTESIAN_POINT ( 'NONE',  ( 7.160756916019386994E-14, -2.511655422331732724E-15, 20.50922293742526747 ) ) ;
#77 = PRODUCT_DEFINITION_SHAPE ( 'NONE', 'NONE',  #58 ) ;
#78 = ADVANCED_FACE ( 'NONE', ( #204 ), #227, .T. ) ;
#79 = CIRCLE ( 'NONE', #218, 1.544000000000000261 ) ;
#80 = FACE_OUTER_BOUND ( 'NONE', #163, .T. ) ;
#81 = APPROVAL_ROLE ( '' ) ;
#82 = FACE_BOUND ( 'NONE', #69, .T. ) ;
#83 = APPROVAL_STATUS ( 'not_yet_approved' ) ;
#84 = VERTEX_POINT ( 'NONE', #215 ) ;
#85 = EDGE_CURVE ( 'NONE', #87, #87, #162, .T. ) ;
#86 = PERSON_AND_ORGANIZATION ( #243, #153 ) ;
#87 = VERTEX_POINT ( 'NONE', #28 ) ;
#88 = DATE_TIME_ROLE ( 'creation_date' ) ;
#89 = LOCAL_TIME ( 15, 2, 8.000000000000000000, #67 ) ;
#90 = ORIENTED_EDGE ( 'NONE', *, *, #228, .T. ) ;
#91 = EDGE_LOOP ( 'NONE', ( #121 ) ) ;
#92 = CARTESIAN_POINT ( 'NONE',  ( 1.955229549752154679E-13, -6.858022075225178552E-15, 56.00000000000000000 ) ) ;
#93 = DIRECTION ( 'NONE',  ( -3.491481338843133355E-15, 1.224646799147353207E-16, -1.000000000000000000 ) ) ;
#94 = EDGE_LOOP ( 'NONE', ( #70 ) ) ;
#95 = DATE_AND_TIME ( #210, #123 ) ;
#96 = APPROVAL_ROLE ( '' ) ;
#97 = SHAPE_DEFINITION_REPRESENTATION ( #77, #99 ) ;
#98 = DIRECTION ( 'NONE',  ( -3.491481338843133355E-15, 1.224646799147353207E-16, -1.000000000000000000 ) ) ;
#99 = ADVANCED_BREP_SHAPE_REPRESENTATION ( '969423', ( #129, #216, #16 ), #230 ) ;
#100 = CALENDAR_DATE ( 2021, 30, 11 ) ;
#101 = PLANE ( 'NONE',  #187 ) ;
#102 =( NAMED_UNIT ( * ) SI_UNIT ( $, .STERADIAN. ) SOLID_ANGLE_UNIT ( ) );
#103 = VERTEX_POINT ( 'NONE', #217 ) ;
#104 = PERSON_AND_ORGANIZATION_ROLE ( 'creator' ) ;
#105 =( LENGTH_UNIT ( ) NAMED_UNIT ( * ) SI_UNIT ( .MILLI., .METRE. ) );
#106 = EDGE_CURVE ( 'NONE', #66, #66, #190, .T. ) ;
#107 = FACE_OUTER_BOUND ( 'NONE', #94, .T. ) ;
#108 = DIRECTION ( 'NONE',  ( -4.294158181465414730E-31, -1.000000000000000000, -1.208698074119850533E-16 ) ) ;
#109 = CARTESIAN_POINT ( 'NONE',  ( 1.955229549752154679E-13, -6.858022075225178552E-15, 56.00000000000000000 ) ) ;
#110 = AXIS2_PLACEMENT_3D ( 'NONE', #128, #98, #184 ) ;
#111 = CC_DESIGN_PERSON_AND_ORGANIZATION_ASSIGNMENT ( #178, #104, ( #203 ) ) ;
#112 = CC_DESIGN_SECURITY_CLASSIFICATION ( #7, ( #203 ) ) ;
#113 = DIRECTION ( 'NONE',  ( -3.491481338843133355E-15, 1.224646799147353207E-16, -1.000000000000000000 ) ) ;
#114 = PERSON_AND_ORGANIZATION_ROLE ( 'creator' ) ;
#115 = APPROVAL ( #83, 'UNSPECIFIED' ) ;
#116 =( NAMED_UNIT ( * ) PLANE_ANGLE_UNIT ( ) SI_UNIT ( $, .RADIAN. ) );
#117 = APPROVAL_DATE_TIME ( #95, #115 ) ;
#118 = DIRECTION ( 'NONE',  ( -3.491481338843133355E-15, 1.224646799147353207E-16, -1.000000000000000000 ) ) ;
#119 = VERTEX_POINT ( 'NONE', #200 ) ;
#120 = APPLICATION_PROTOCOL_DEFINITION ( 'international standard', 'config_control_design', 1994, #171 ) ;
#121 = ORIENTED_EDGE ( 'NONE', *, *, #85, .F. ) ;
#122 = CONICAL_SURFACE ( 'NONE', #157, 1.200000000000000178, 0.7853981633974450594 ) ;
#123 = LOCAL_TIME ( 15, 2, 8.000000000000000000, #40 ) ;
#124 = ORIENTED_EDGE ( 'NONE', *, *, #47, .T. ) ;
#125 = ADVANCED_FACE ( 'NONE', ( #74, #36 ), #149, .T. ) ;
#126 = EDGE_LOOP ( 'NONE', ( #168 ) ) ;
#127 = EDGE_LOOP ( 'NONE', ( #165 ) ) ;
#128 = CARTESIAN_POINT ( 'NONE',  ( 0.0000000000000000000, 0.0000000000000000000, 0.0000000000000000000 ) ) ;
#129 = MANIFOLD_SOLID_BREP ( 'Corps-Déplacer/Copier1[1]', #59 ) ;
#130 = CARTESIAN_POINT ( 'NONE',  ( 6.982962677686265448E-14, 4.383375557026302911E-31, 19.99999999999999645 ) ) ;
#131 = FACE_BOUND ( 'NONE', #127, .T. ) ;
#132 = CC_DESIGN_APPROVAL ( #181, ( #58 ) ) ;
#133 = UNCERTAINTY_MEASURE_WITH_UNIT (LENGTH_MEASURE( 1.000000000000000082E-05 ), #105, 'distance_accuracy_value', 'NONE');
#134 = APPROVAL_PERSON_ORGANIZATION ( #65, #17, #81 ) ;
#135 = DIRECTION ( 'NONE',  ( 0.0000000000000000000, 1.000000000000000000, 0.0000000000000000000 ) ) ;
#136 = COORDINATED_UNIVERSAL_TIME_OFFSET ( 1, 0, .AHEAD. ) ;
#137 = CARTESIAN_POINT ( 'NONE',  ( 6.982962677686265448E-14, -2.449293598294706119E-15, 19.99999999999999645 ) ) ;
#138 = APPROVAL_STATUS ( 'not_yet_approved' ) ;
#139 = CARTESIAN_POINT ( 'NONE',  ( 7.160756916019386994E-14, 1.499999999999993339, 20.50922293742526747 ) ) ;
#140 = DIRECTION ( 'NONE',  ( 0.0000000000000000000, 0.0000000000000000000, 1.000000000000000000 ) ) ;
#141 = CIRCLE ( 'NONE', #71, 1.794000000000002926 ) ;
#142 = DIRECTION ( 'NONE',  ( -3.491481338843133355E-15, 1.224646799147353207E-16, -1.000000000000000000 ) ) ;
#143 = EDGE_LOOP ( 'NONE', ( #221 ) ) ;
#144 = EDGE_LOOP ( 'NONE', ( #90 ) ) ;
#145 = CLOSED_SHELL ( 'NONE', ( #3, #31, #125, #78 ) ) ;
#146 = CIRCLE ( 'NONE', #208, 1.793999999999997597 ) ;
#147 = ORIENTED_EDGE ( 'NONE', *, *, #209, .T. ) ;
#148 = ADVANCED_FACE ( 'NONE', ( #26, #131 ), #235, .T. ) ;
#149 = CYLINDRICAL_SURFACE ( 'NONE', #63, 1.794000000000000261 ) ;
#150 = CARTESIAN_POINT ( 'NONE',  ( 0.0000000000000000000, 0.0000000000000000000, 0.0000000000000000000 ) ) ;
#151 = PRODUCT ( '969423', '969423', '', ( #212 ) ) ;
#152 = DIRECTION ( 'NONE',  ( 0.0000000000000000000, 1.000000000000000000, 0.0000000000000000000 ) ) ;
#153 = ORGANIZATION ( 'UNSPECIFIED', 'UNSPECIFIED', '' ) ;
#154 = DIRECTION ( 'NONE',  ( 0.0000000000000000000, 1.000000000000000000, 0.0000000000000000000 ) ) ;
#155 = APPROVAL_DATE_TIME ( #23, #17 ) ;
#156 = DIRECTION ( 'NONE',  ( 3.491481338843133355E-15, -1.224646799147353207E-16, 1.000000000000000000 ) ) ;
#157 = AXIS2_PLACEMENT_3D ( 'NONE', #92, #240, #37 ) ;
#158 = VERTEX_POINT ( 'NONE', #197 ) ;
#159 = DIRECTION ( 'NONE',  ( -3.491481338843133355E-15, 1.224646799147353207E-16, -1.000000000000000000 ) ) ;
#160 = PLANE ( 'NONE',  #188 ) ;
#161 = COORDINATED_UNIVERSAL_TIME_OFFSET ( 1, 0, .AHEAD. ) ;
#162 = CIRCLE ( 'NONE', #55, 1.200000000000000178 ) ;
#163 = EDGE_LOOP ( 'NONE', ( #124 ) ) ;
#164 = CC_DESIGN_DATE_AND_TIME_ASSIGNMENT ( #179, #88, ( #58 ) ) ;
#165 = ORIENTED_EDGE ( 'NONE', *, *, #106, .T. ) ;
#166 = EDGE_CURVE ( 'NONE', #103, #103, #12, .T. ) ;
#167 = CARTESIAN_POINT ( 'NONE',  ( -2.816412099698581821E-31, 9.878643842669290096E-33, -8.066524853980091683E-17 ) ) ;
#168 = ORIENTED_EDGE ( 'NONE', *, *, #85, .T. ) ;
#169 = CC_DESIGN_APPROVAL ( #115, ( #7 ) ) ;
#170 = ADVANCED_FACE ( 'NONE', ( #107, #56 ), #24, .T. ) ;
#171 = APPLICATION_CONTEXT ( 'configuration controlled 3d designs of mechanical parts and assemblies' ) ;
#172 = CARTESIAN_POINT ( 'NONE',  ( -1.408206049849290910E-31, 4.939321921334645048E-33, -4.033262426990045842E-17 ) ) ;
#173 = FACE_OUTER_BOUND ( 'NONE', #53, .T. ) ;
#174 = PERSON_AND_ORGANIZATION ( #243, #153 ) ;
#175 = CARTESIAN_POINT ( 'NONE',  ( 1.944755105735625216E-13, -6.821282671250756903E-15, 55.70000000000000284 ) ) ;
#176 = CONICAL_SURFACE ( 'NONE', #198, 1.793999999999997597, 0.7853981633974432830 ) ;
#177 = VERTEX_POINT ( 'NONE', #219 ) ;
#178 = PERSON_AND_ORGANIZATION ( #243, #153 ) ;
#179 = DATE_AND_TIME ( #5, #89 ) ;
#180 = EDGE_LOOP ( 'NONE', ( #147 ) ) ;
#181 = APPROVAL ( #44, 'UNSPECIFIED' ) ;
#182 = ORIENTED_EDGE ( 'NONE', *, *, #166, .T. ) ;
#183 = APPROVAL_PERSON_ORGANIZATION ( #191, #181, #96 ) ;
#184 = DIRECTION ( 'NONE',  ( 4.275831445896959482E-31, 1.000000000000000000, 1.224646799147353207E-16 ) ) ;
#185 = FACE_OUTER_BOUND ( 'NONE', #91, .T. ) ;
#186 = ADVANCED_FACE ( 'NONE', ( #173, #4 ), #122, .T. ) ;
#187 = AXIS2_PLACEMENT_3D ( 'NONE', #172, #156, #1 ) ;
#188 = AXIS2_PLACEMENT_3D ( 'NONE', #236, #118, #48 ) ;
#189 = DIRECTION ( 'NONE',  ( 0.0000000000000000000, 1.000000000000000000, 0.0000000000000000000 ) ) ;
#190 = CIRCLE ( 'NONE', #11, 1.499999999999996003 ) ;
#191 = PERSON_AND_ORGANIZATION ( #243, #153 ) ;
#192 = DIRECTION ( 'NONE',  ( 3.491481338843133355E-15, -1.224646799147353207E-16, 1.000000000000000000 ) ) ;
#193 = CALENDAR_DATE ( 2021, 30, 11 ) ;
#194 = DIRECTION ( 'NONE',  ( -3.491481338843133355E-15, 1.224646799147353207E-16, -1.000000000000000000 ) ) ;
#195 = DATE_AND_TIME ( #27, #231 ) ;
#196 = ADVANCED_FACE ( 'NONE', ( #185 ), #160, .F. ) ;
#197 = CARTESIAN_POINT ( 'NONE',  ( 1.944755105735625216E-13, 1.499999999999993117, 55.70000000000000284 ) ) ;
#198 = AXIS2_PLACEMENT_3D ( 'NONE', #211, #192, #108 ) ;
#199 = PERSON_AND_ORGANIZATION_ROLE ( 'classification_officer' ) ;
#200 = CARTESIAN_POINT ( 'NONE',  ( 8.728703347107835360E-16, 1.793999999999997597, 0.2500000000000000555 ) ) ;
#201 = PERSON_AND_ORGANIZATION ( #243, #153 ) ;
#202 = APPLICATION_CONTEXT ( 'configuration controlled 3d designs of mechanical parts and assemblies' ) ;
#203 = PRODUCT_DEFINITION_FORMATION_WITH_SPECIFIED_SOURCE ( 'ANY', '', #151, .NOT_KNOWN. ) ;
#204 = FACE_OUTER_BOUND ( 'NONE', #33, .T. ) ;
#205 = DIRECTION ( 'NONE',  ( 3.491481338843133355E-15, -1.224646799147353207E-16, 1.000000000000000000 ) ) ;
#206 = CC_DESIGN_PERSON_AND_ORGANIZATION_ASSIGNMENT ( #86, #237, ( #151 ) ) ;
#207 = CARTESIAN_POINT ( 'NONE',  ( 7.160756916019386994E-14, -2.511655422331732724E-15, 20.50922293742526747 ) ) ;
#208 = AXIS2_PLACEMENT_3D ( 'NONE', #6, #142, #238 ) ;
#209 = EDGE_CURVE ( 'NONE', #177, #177, #141, .T. ) ;
#210 = CALENDAR_DATE ( 2021, 30, 11 ) ;
#211 = CARTESIAN_POINT ( 'NONE',  ( 8.728703347107827472E-16, -3.061616997868381169E-17, 0.2499999999999998335 ) ) ;
#212 = MECHANICAL_CONTEXT ( 'NONE', #202, 'mechanical' ) ;
#213 = DIRECTION ( 'NONE',  ( -3.491481338843133355E-15, 1.224646799147353207E-16, -1.000000000000000000 ) ) ;
#214 = APPROVAL_ROLE ( '' ) ;
#215 = CARTESIAN_POINT ( 'NONE',  ( 3.785471652766322713E-31, 1.544000000000000261, 1.084202172485504434E-16 ) ) ;
#216 = MANIFOLD_SOLID_BREP ( 'Corps-Déplacer/Copier1[2]', #145 ) ;
#217 = CARTESIAN_POINT ( 'NONE',  ( 6.982962677686265448E-14, 1.794000000000000483, 19.99999999999999645 ) ) ;
#218 = AXIS2_PLACEMENT_3D ( 'NONE', #167, #93, #234 ) ;
#219 = CARTESIAN_POINT ( 'NONE',  ( 6.982962677686265448E-14, 1.794000000000000483, 19.99999999999999645 ) ) ;
#220 = ORIENTED_EDGE ( 'NONE', *, *, #68, .T. ) ;
#221 = ORIENTED_EDGE ( 'NONE', *, *, #209, .F. ) ;
#222 = CC_DESIGN_PERSON_AND_ORGANIZATION_ASSIGNMENT ( #233, #199, ( #7 ) ) ;
#223 = ORIENTED_EDGE ( 'NONE', *, *, #47, .F. ) ;
#224 = DIRECTION ( 'NONE',  ( -3.491481338843133355E-15, 1.224646799147353207E-16, -1.000000000000000000 ) ) ;
#225 = AXIS2_PLACEMENT_3D ( 'NONE', #42, #113, #226 ) ;
#226 = DIRECTION ( 'NONE',  ( 0.0000000000000000000, 1.000000000000000000, 0.0000000000000000000 ) ) ;
#227 = PLANE ( 'NONE',  #22 ) ;
#228 = EDGE_CURVE ( 'NONE', #119, #119, #146, .T. ) ;
#229 = CIRCLE ( 'NONE', #34, 1.499999999999999778 ) ;
#230 =( GEOMETRIC_REPRESENTATION_CONTEXT ( 3 ) GLOBAL_UNCERTAINTY_ASSIGNED_CONTEXT ( ( #133 ) ) GLOBAL_UNIT_ASSIGNED_CONTEXT ( ( #105, #116, #102 ) ) REPRESENTATION_CONTEXT ( 'NONE', 'WORKASPACE' ) );
#231 = LOCAL_TIME ( 15, 2, 8.000000000000000000, #30 ) ;
#232 = DIRECTION ( 'NONE',  ( -4.275831445896958607E-31, -1.000000000000000000, -1.224646799147353207E-16 ) ) ;
#233 = PERSON_AND_ORGANIZATION ( #243, #153 ) ;
#234 = DIRECTION ( 'NONE',  ( 4.275831445896958607E-31, 1.000000000000000000, 1.224646799147353207E-16 ) ) ;
#235 = CONICAL_SURFACE ( 'NONE', #35, 1.499999999999996003, 0.5235987755982924874 ) ;
#236 = CARTESIAN_POINT ( 'NONE',  ( 1.955229549752154679E-13, 8.998558695971043013E-33, 56.00000000000000000 ) ) ;
#237 = PERSON_AND_ORGANIZATION_ROLE ( 'design_owner' ) ;
#238 = DIRECTION ( 'NONE',  ( 4.294158181465414730E-31, 1.000000000000000000, 1.208698074119850533E-16 ) ) ;
#239 = EDGE_LOOP ( 'NONE', ( #220 ) ) ;
#240 = DIRECTION ( 'NONE',  ( -3.491481338843133355E-15, 1.224646799147353207E-16, -1.000000000000000000 ) ) ;
#241 = LOCAL_TIME ( 15, 2, 8.000000000000000000, #161 ) ;
#242 = CARTESIAN_POINT ( 'NONE',  ( 6.982962677686265448E-14, 4.383375557026302911E-31, 19.99999999999999645 ) ) ;
#243 = PERSON ( 'UNSPECIFIED', 'UNSPECIFIED', 'UNSPECIFIED', ('UNSPECIFIED'), ('UNSPECIFIED'), ('UNSPECIFIED') ) ;
ENDSEC;
END-ISO-10303-21;
