ISO-10303-21;
HEADER;
FILE_DESCRIPTION (( 'STEP AP203' ),
    '1' );
FILE_NAME ('969422.step',
    '2021-11-30T14:02:07',
    ( '' ),
    ( '' ),
    'SwSTEP 2.0',
    'SolidWorks 2019',
    '' );
FILE_SCHEMA (( 'CONFIG_CONTROL_DESIGN' ));
ENDSEC;

DATA;
#1 = CC_DESIGN_DATE_AND_TIME_ASSIGNMENT ( #31, #114, ( #95 ) ) ;
#2 = AXIS2_PLACEMENT_3D ( 'NONE', #177, #121, #197 ) ;
#3 = DIRECTION ( 'NONE',  ( 3.491481338843133355E-15, -1.224646799147353207E-16, 1.000000000000000000 ) ) ;
#4 = FACE_OUTER_BOUND ( 'NONE', #18, .T. ) ;
#5 = CC_DESIGN_APPROVAL ( #138, ( #95 ) ) ;
#6 = CLOSED_SHELL ( 'NONE', ( #142, #98, #58, #85 ) ) ;
#7 = CARTESIAN_POINT ( 'NONE',  ( 6.982962677686265448E-14, 4.382250737189305990E-31, 19.99999999999999645 ) ) ;
#8 = PRODUCT ( '969422', '969422', '', ( #110 ) ) ;
#9 = CONICAL_SURFACE ( 'NONE', #128, 1.778999999999997694, 0.7853981633974431720 ) ;
#10 = VERTEX_POINT ( 'NONE', #50 ) ;
#11 = VERTEX_POINT ( 'NONE', #168 ) ;
#12 = AXIS2_PLACEMENT_3D ( 'NONE', #24, #69, #48 ) ;
#13 = APPROVAL_PERSON_ORGANIZATION ( #93, #138, #107 ) ;
#14 = APPROVAL_STATUS ( 'not_yet_approved' ) ;
#15 = COORDINATED_UNIVERSAL_TIME_OFFSET ( 1, 0, .AHEAD. ) ;
#16 = ADVANCED_FACE ( 'NONE', ( #195, #220 ), #109, .T. ) ;
#17 = EDGE_LOOP ( 'NONE', ( #46 ) ) ;
#18 = EDGE_LOOP ( 'NONE', ( #134 ) ) ;
#19 = ORGANIZATION ( 'UNSPECIFIED', 'UNSPECIFIED', '' ) ;
#20 = CIRCLE ( 'NONE', #91, 1.499999999999996003 ) ;
#21 = ORIENTED_EDGE ( 'NONE', *, *, #23, .F. ) ;
#22 = FACE_OUTER_BOUND ( 'NONE', #141, .T. ) ;
#23 = EDGE_CURVE ( 'NONE', #216, #216, #20, .T. ) ;
#24 = CARTESIAN_POINT ( 'NONE',  ( 0.0000000000000000000, 0.0000000000000000000, 0.0000000000000000000 ) ) ;
#25 = FACE_BOUND ( 'NONE', #194, .T. ) ;
#26 = AXIS2_PLACEMENT_3D ( 'NONE', #34, #235, #72 ) ;
#27 = APPROVAL_STATUS ( 'not_yet_approved' ) ;
#28 = EDGE_CURVE ( 'NONE', #233, #233, #211, .T. ) ;
#29 = AXIS2_PLACEMENT_3D ( 'NONE', #190, #61, #156 ) ;
#30 = ADVANCED_FACE ( 'NONE', ( #79 ), #240, .F. ) ;
#31 = DATE_AND_TIME ( #151, #162 ) ;
#32 = APPLICATION_PROTOCOL_DEFINITION ( 'international standard', 'config_control_design', 1994, #37 ) ;
#33 = VERTEX_POINT ( 'NONE', #149 ) ;
#34 = CARTESIAN_POINT ( 'NONE',  ( 1.955229549752154679E-13, -6.858022075225178552E-15, 56.00000000000000000 ) ) ;
#35 = PERSON_AND_ORGANIZATION ( #116, #19 ) ;
#36 = DIRECTION ( 'NONE',  ( 0.0000000000000000000, 1.000000000000000000, 0.0000000000000000000 ) ) ;
#37 = APPLICATION_CONTEXT ( 'configuration controlled 3d designs of mechanical parts and assemblies' ) ;
#38 = PERSON_AND_ORGANIZATION ( #116, #19 ) ;
#39 = EDGE_LOOP ( 'NONE', ( #137 ) ) ;
#40 = DESIGN_CONTEXT ( 'detailed design', #124, 'design' ) ;
#41 = EDGE_LOOP ( 'NONE', ( #210 ) ) ;
#42 = DIRECTION ( 'NONE',  ( -3.491481338843133355E-15, 1.224646799147353207E-16, -1.000000000000000000 ) ) ;
#43 = PLANE ( 'NONE',  #231 ) ;
#44 = APPROVAL_PERSON_ORGANIZATION ( #171, #187, #189 ) ;
#45 = CC_DESIGN_PERSON_AND_ORGANIZATION_ASSIGNMENT ( #94, #215, ( #95 ) ) ;
#46 = ORIENTED_EDGE ( 'NONE', *, *, #226, .T. ) ;
#47 = CYLINDRICAL_SURFACE ( 'NONE', #152, 1.779000000000000581 ) ;
#48 = DIRECTION ( 'NONE',  ( 4.275831445896959482E-31, 1.000000000000000000, 1.224646799147353207E-16 ) ) ;
#49 = CIRCLE ( 'NONE', #188, 1.200000000000000178 ) ;
#50 = CARTESIAN_POINT ( 'NONE',  ( 6.982962677686265448E-14, 1.779000000000001025, 19.99999999999999645 ) ) ;
#51 = MANIFOLD_SOLID_BREP ( 'Corps-Déplacer/Copier1[2]', #6 ) ;
#52 = CARTESIAN_POINT ( 'NONE',  ( 7.570943305532645426E-31, 1.529000000000000359, 2.168404344971008868E-16 ) ) ;
#53 = PRODUCT_DEFINITION_FORMATION_WITH_SPECIFIED_SOURCE ( 'ANY', '', #8, .NOT_KNOWN. ) ;
#54 = AXIS2_PLACEMENT_3D ( 'NONE', #147, #200, #68 ) ;
#55 = CC_DESIGN_PERSON_AND_ORGANIZATION_ASSIGNMENT ( #206, #218, ( #74 ) ) ;
#56 = CARTESIAN_POINT ( 'NONE',  ( 7.151685781410552588E-14, 1.499999999999993339, 20.48324217531173019 ) ) ;
#57 = DATE_AND_TIME ( #59, #184 ) ;
#58 = ADVANCED_FACE ( 'NONE', ( #22, #212 ), #47, .T. ) ;
#59 = CALENDAR_DATE ( 2021, 30, 11 ) ;
#60 = ORIENTED_EDGE ( 'NONE', *, *, #77, .T. ) ;
#61 = DIRECTION ( 'NONE',  ( -3.491481338843133355E-15, 1.224646799147353207E-16, -1.000000000000000000 ) ) ;
#62 = DIRECTION ( 'NONE',  ( -3.491481338843133355E-15, 1.224646799147353207E-16, -1.000000000000000000 ) ) ;
#63 = AXIS2_PLACEMENT_3D ( 'NONE', #96, #183, #202 ) ;
#64 = DIRECTION ( 'NONE',  ( 4.275831445896958607E-31, 1.000000000000000000, 1.224646799147353207E-16 ) ) ;
#65 = DIRECTION ( 'NONE',  ( -3.491481338843133355E-15, 1.224646799147353207E-16, -1.000000000000000000 ) ) ;
#66 = DIRECTION ( 'NONE',  ( -4.275831445896958607E-31, -1.000000000000000000, -1.224646799147353207E-16 ) ) ;
#67 = ORIENTED_EDGE ( 'NONE', *, *, #217, .T. ) ;
#68 = DIRECTION ( 'NONE',  ( -4.275831445896958607E-31, -1.000000000000000000, -1.224646799147353207E-16 ) ) ;
#69 = DIRECTION ( 'NONE',  ( -3.491481338843133355E-15, 1.224646799147353207E-16, -1.000000000000000000 ) ) ;
#70 = CALENDAR_DATE ( 2021, 30, 11 ) ;
#71 = CARTESIAN_POINT ( 'NONE',  ( 8.728703347107833388E-16, 1.778999999999997694, 0.2500000000000000000 ) ) ;
#72 = DIRECTION ( 'NONE',  ( 0.0000000000000000000, 1.000000000000000000, 0.0000000000000000000 ) ) ;
#73 = COORDINATED_UNIVERSAL_TIME_OFFSET ( 1, 0, .AHEAD. ) ;
#74 = SECURITY_CLASSIFICATION ( '', '', #193 ) ;
#75 =( NAMED_UNIT ( * ) PLANE_ANGLE_UNIT ( ) SI_UNIT ( $, .RADIAN. ) );
#76 = AXIS2_PLACEMENT_3D ( 'NONE', #154, #155, #64 ) ;
#77 = EDGE_CURVE ( 'NONE', #10, #10, #201, .T. ) ;
#78 = CALENDAR_DATE ( 2021, 30, 11 ) ;
#79 = FACE_OUTER_BOUND ( 'NONE', #175, .T. ) ;
#80 = UNCERTAINTY_MEASURE_WITH_UNIT (LENGTH_MEASURE( 1.000000000000000082E-05 ), #185, 'distance_accuracy_value', 'NONE');
#81 = EDGE_LOOP ( 'NONE', ( #67 ) ) ;
#82 = FACE_OUTER_BOUND ( 'NONE', #81, .T. ) ;
#83 = LOCAL_TIME ( 15, 2, 7.000000000000000000, #15 ) ;
#84 = DIRECTION ( 'NONE',  ( -3.491481338843133355E-15, 1.224646799147353207E-16, -1.000000000000000000 ) ) ;
#85 = ADVANCED_FACE ( 'NONE', ( #179 ), #43, .T. ) ;
#86 = CARTESIAN_POINT ( 'NONE',  ( 6.982962677686265448E-14, 4.382250737189305990E-31, 19.99999999999999645 ) ) ;
#87 = LOCAL_TIME ( 15, 2, 7.000000000000000000, #186 ) ;
#88 = FACE_OUTER_BOUND ( 'NONE', #140, .T. ) ;
#89 = PRODUCT_DEFINITION_SHAPE ( 'NONE', 'NONE',  #95 ) ;
#90 = ORIENTED_EDGE ( 'NONE', *, *, #23, .T. ) ;
#91 = AXIS2_PLACEMENT_3D ( 'NONE', #120, #103, #243 ) ;
#92 = CARTESIAN_POINT ( 'NONE',  ( 0.0000000000000000000, 0.0000000000000000000, 0.0000000000000000000 ) ) ;
#93 = PERSON_AND_ORGANIZATION ( #116, #19 ) ;
#94 = PERSON_AND_ORGANIZATION ( #116, #19 ) ;
#95 = PRODUCT_DEFINITION ( 'UNKNOWN', '', #53, #40 ) ;
#96 = CARTESIAN_POINT ( 'NONE',  ( 6.982962677686265448E-14, -2.449293598294706119E-15, 19.99999999999999645 ) ) ;
#97 = ADVANCED_FACE ( 'NONE', ( #123 ), #199, .F. ) ;
#98 = ADVANCED_FACE ( 'NONE', ( #25, #4 ), #9, .T. ) ;
#99 = CIRCLE ( 'NONE', #164, 1.499999999999999778 ) ;
#100 = DATE_AND_TIME ( #78, #126 ) ;
#101 = APPROVAL_STATUS ( 'not_yet_approved' ) ;
#102 = EDGE_LOOP ( 'NONE', ( #242 ) ) ;
#103 = DIRECTION ( 'NONE',  ( -3.491481338843133355E-15, 1.224646799147353207E-16, -1.000000000000000000 ) ) ;
#104 = ORIENTED_EDGE ( 'NONE', *, *, #192, .T. ) ;
#105 = FACE_OUTER_BOUND ( 'NONE', #102, .T. ) ;
#106 = CLOSED_SHELL ( 'NONE', ( #97, #16, #143, #225, #30 ) ) ;
#107 = APPROVAL_ROLE ( '' ) ;
#108 =( GEOMETRIC_REPRESENTATION_CONTEXT ( 3 ) GLOBAL_UNCERTAINTY_ASSIGNED_CONTEXT ( ( #80 ) ) GLOBAL_UNIT_ASSIGNED_CONTEXT ( ( #185, #75, #132 ) ) REPRESENTATION_CONTEXT ( 'NONE', 'WORKASPACE' ) );
#109 = CONICAL_SURFACE ( 'NONE', #237, 1.499999999999996003, 0.5235987755982967062 ) ;
#110 = MECHANICAL_CONTEXT ( 'NONE', #37, 'mechanical' ) ;
#111 = AXIS2_PLACEMENT_3D ( 'NONE', #92, #182, #166 ) ;
#112 = EDGE_CURVE ( 'NONE', #11, #11, #99, .T. ) ;
#113 = CC_DESIGN_APPROVAL ( #187, ( #74 ) ) ;
#114 = DATE_TIME_ROLE ( 'creation_date' ) ;
#115 = PERSON_AND_ORGANIZATION_ROLE ( 'creator' ) ;
#116 = PERSON ( 'UNSPECIFIED', 'UNSPECIFIED', 'UNSPECIFIED', ('UNSPECIFIED'), ('UNSPECIFIED'), ('UNSPECIFIED') ) ;
#117 = CARTESIAN_POINT ( 'NONE',  ( 7.151685781410552588E-14, -2.508473696615557591E-15, 20.48324217531173019 ) ) ;
#118 = EDGE_LOOP ( 'NONE', ( #174 ) ) ;
#119 = ORIENTED_EDGE ( 'NONE', *, *, #28, .F. ) ;
#120 = CARTESIAN_POINT ( 'NONE',  ( 7.151685781410552588E-14, -2.508473696615557591E-15, 20.48324217531173019 ) ) ;
#121 = DIRECTION ( 'NONE',  ( -3.491481338843133355E-15, 1.224646799147353207E-16, -1.000000000000000000 ) ) ;
#122 = CARTESIAN_POINT ( 'NONE',  ( 8.728703347107825500E-16, -3.061616997868380553E-17, 0.2499999999999997780 ) ) ;
#123 = FACE_OUTER_BOUND ( 'NONE', #17, .T. ) ;
#124 = APPLICATION_CONTEXT ( 'configuration controlled 3d designs of mechanical parts and assemblies' ) ;
#125 = CARTESIAN_POINT ( 'NONE',  ( 1.955229549752154679E-13, -6.858022075225178552E-15, 56.00000000000000000 ) ) ;
#126 = LOCAL_TIME ( 15, 2, 7.000000000000000000, #172 ) ;
#127 = PERSON_AND_ORGANIZATION ( #116, #19 ) ;
#128 = AXIS2_PLACEMENT_3D ( 'NONE', #122, #213, #144 ) ;
#129 = CARTESIAN_POINT ( 'NONE',  ( 6.982962677686265448E-14, 1.779000000000001025, 19.99999999999999645 ) ) ;
#130 = CC_DESIGN_APPROVAL ( #204, ( #53 ) ) ;
#131 = DATE_AND_TIME ( #70, #87 ) ;
#132 =( NAMED_UNIT ( * ) SI_UNIT ( $, .STERADIAN. ) SOLID_ANGLE_UNIT ( ) );
#133 = PERSON_AND_ORGANIZATION_ROLE ( 'design_supplier' ) ;
#134 = ORIENTED_EDGE ( 'NONE', *, *, #28, .T. ) ;
#135 = MANIFOLD_SOLID_BREP ( 'Corps-Déplacer/Copier1[1]', #106 ) ;
#136 = APPROVAL_ROLE ( '' ) ;
#137 = ORIENTED_EDGE ( 'NONE', *, *, #77, .F. ) ;
#138 = APPROVAL ( #27, 'UNSPECIFIED' ) ;
#139 = CONICAL_SURFACE ( 'NONE', #26, 1.200000000000000178, 0.7853981633974450594 ) ;
#140 = EDGE_LOOP ( 'NONE', ( #21 ) ) ;
#141 = EDGE_LOOP ( 'NONE', ( #119 ) ) ;
#142 = ADVANCED_FACE ( 'NONE', ( #82 ), #198, .F. ) ;
#143 = ADVANCED_FACE ( 'NONE', ( #88, #105 ), #165, .T. ) ;
#144 = DIRECTION ( 'NONE',  ( -4.330365248762762311E-31, -1.000000000000000000, -1.218889457544132597E-16 ) ) ;
#145 = DIRECTION ( 'NONE',  ( 0.0000000000000000000, 1.000000000000000000, 0.0000000000000000000 ) ) ;
#146 = DIRECTION ( 'NONE',  ( 3.491481338843133355E-15, -1.224646799147353207E-16, 1.000000000000000000 ) ) ;
#147 = CARTESIAN_POINT ( 'NONE',  ( 5.165985123780969701E-32, -1.811983663179890313E-33, 1.479596945373526383E-17 ) ) ;
#148 = APPROVAL_DATE_TIME ( #131, #138 ) ;
#149 = CARTESIAN_POINT ( 'NONE',  ( 1.955229549752154679E-13, 1.199999999999993072, 56.00000000000000000 ) ) ;
#150 = FACE_BOUND ( 'NONE', #221, .T. ) ;
#151 = CALENDAR_DATE ( 2021, 30, 11 ) ;
#152 = AXIS2_PLACEMENT_3D ( 'NONE', #157, #65, #224 ) ;
#153 = PERSON_AND_ORGANIZATION ( #116, #19 ) ;
#154 = CARTESIAN_POINT ( 'NONE',  ( 1.955229549752154679E-13, 8.998558695971043013E-33, 56.00000000000000000 ) ) ;
#155 = DIRECTION ( 'NONE',  ( -3.491481338843133355E-15, 1.224646799147353207E-16, -1.000000000000000000 ) ) ;
#156 = DIRECTION ( 'NONE',  ( 4.330365248762762311E-31, 1.000000000000000000, 1.218889457544132597E-16 ) ) ;
#157 = CARTESIAN_POINT ( 'NONE',  ( 0.0000000000000000000, 0.0000000000000000000, 0.0000000000000000000 ) ) ;
#158 = DIRECTION ( 'NONE',  ( 0.0000000000000000000, 1.000000000000000000, 0.0000000000000000000 ) ) ;
#159 = ADVANCED_BREP_SHAPE_REPRESENTATION ( '969422', ( #135, #51, #111 ), #108 ) ;
#160 = DIRECTION ( 'NONE',  ( -3.491481338843133355E-15, 1.224646799147353207E-16, -1.000000000000000000 ) ) ;
#161 = CC_DESIGN_PERSON_AND_ORGANIZATION_ASSIGNMENT ( #153, #115, ( #53 ) ) ;
#162 = LOCAL_TIME ( 15, 2, 7.000000000000000000, #73 ) ;
#163 = CARTESIAN_POINT ( 'NONE',  ( 6.982962677686265448E-14, -2.449293598294706119E-15, 19.99999999999999645 ) ) ;
#164 = AXIS2_PLACEMENT_3D ( 'NONE', #230, #84, #232 ) ;
#165 = CYLINDRICAL_SURFACE ( 'NONE', #12, 1.499999999999997780 ) ;
#166 = DIRECTION ( 'NONE',  ( 1.000000000000000000, 0.0000000000000000000, 0.0000000000000000000 ) ) ;
#167 = VERTEX_POINT ( 'NONE', #52 ) ;
#168 = CARTESIAN_POINT ( 'NONE',  ( 1.944755105735625216E-13, 1.499999999999993117, 55.70000000000000284 ) ) ;
#169 = APPLICATION_PROTOCOL_DEFINITION ( 'international standard', 'config_control_design', 1994, #124 ) ;
#170 = CIRCLE ( 'NONE', #63, 1.779000000000003467 ) ;
#171 = PERSON_AND_ORGANIZATION ( #116, #19 ) ;
#172 = COORDINATED_UNIVERSAL_TIME_OFFSET ( 1, 0, .AHEAD. ) ;
#173 = CALENDAR_DATE ( 2021, 30, 11 ) ;
#174 = ORIENTED_EDGE ( 'NONE', *, *, #112, .F. ) ;
#175 = EDGE_LOOP ( 'NONE', ( #191 ) ) ;
#176 = EDGE_LOOP ( 'NONE', ( #60 ) ) ;
#177 = CARTESIAN_POINT ( 'NONE',  ( 1.033197024756193940E-31, -3.623967326359780626E-33, 2.959193890747052766E-17 ) ) ;
#178 = CC_DESIGN_SECURITY_CLASSIFICATION ( #74, ( #53 ) ) ;
#179 = FACE_OUTER_BOUND ( 'NONE', #39, .T. ) ;
#180 = CC_DESIGN_PERSON_AND_ORGANIZATION_ASSIGNMENT ( #127, #234, ( #8 ) ) ;
#181 = DIRECTION ( 'NONE',  ( -4.275831445896958607E-31, -1.000000000000000000, -1.224646799147353207E-16 ) ) ;
#182 = DIRECTION ( 'NONE',  ( 0.0000000000000000000, 0.0000000000000000000, 1.000000000000000000 ) ) ;
#183 = DIRECTION ( 'NONE',  ( -3.491481338843133355E-15, 1.224646799147353207E-16, -1.000000000000000000 ) ) ;
#184 = LOCAL_TIME ( 15, 2, 7.000000000000000000, #207 ) ;
#185 =( LENGTH_UNIT ( ) NAMED_UNIT ( * ) SI_UNIT ( .MILLI., .METRE. ) );
#186 = COORDINATED_UNIVERSAL_TIME_OFFSET ( 1, 0, .AHEAD. ) ;
#187 = APPROVAL ( #101, 'UNSPECIFIED' ) ;
#188 = AXIS2_PLACEMENT_3D ( 'NONE', #125, #42, #158 ) ;
#189 = APPROVAL_ROLE ( '' ) ;
#190 = CARTESIAN_POINT ( 'NONE',  ( 8.728703347107825500E-16, -3.061616997868380553E-17, 0.2499999999999997780 ) ) ;
#191 = ORIENTED_EDGE ( 'NONE', *, *, #192, .F. ) ;
#192 = EDGE_CURVE ( 'NONE', #33, #33, #49, .T. ) ;
#193 = SECURITY_CLASSIFICATION_LEVEL ( 'unclassified' ) ;
#194 = EDGE_LOOP ( 'NONE', ( #208 ) ) ;
#195 = FACE_OUTER_BOUND ( 'NONE', #41, .T. ) ;
#196 = AXIS2_PLACEMENT_3D ( 'NONE', #163, #160, #145 ) ;
#197 = DIRECTION ( 'NONE',  ( 4.275831445896958607E-31, 1.000000000000000000, 1.224646799147353454E-16 ) ) ;
#198 = PLANE ( 'NONE',  #54 ) ;
#199 = PLANE ( 'NONE',  #227 ) ;
#200 = DIRECTION ( 'NONE',  ( 3.491481338843133355E-15, -1.224646799147353207E-16, 1.000000000000000000 ) ) ;
#201 = CIRCLE ( 'NONE', #196, 1.779000000000003467 ) ;
#202 = DIRECTION ( 'NONE',  ( 0.0000000000000000000, 1.000000000000000000, 0.0000000000000000000 ) ) ;
#203 = VERTEX_POINT ( 'NONE', #129 ) ;
#204 = APPROVAL ( #14, 'UNSPECIFIED' ) ;
#205 = SHAPE_DEFINITION_REPRESENTATION ( #89, #159 ) ;
#206 = PERSON_AND_ORGANIZATION ( #116, #19 ) ;
#207 = COORDINATED_UNIVERSAL_TIME_OFFSET ( 1, 0, .AHEAD. ) ;
#208 = ORIENTED_EDGE ( 'NONE', *, *, #217, .F. ) ;
#209 = PRODUCT_RELATED_PRODUCT_CATEGORY ( 'detail', '', ( #8 ) ) ;
#210 = ORIENTED_EDGE ( 'NONE', *, *, #226, .F. ) ;
#211 = CIRCLE ( 'NONE', #29, 1.778999999999997694 ) ;
#212 = FACE_OUTER_BOUND ( 'NONE', #176, .T. ) ;
#213 = DIRECTION ( 'NONE',  ( 3.491481338843133355E-15, -1.224646799147353207E-16, 1.000000000000000000 ) ) ;
#214 = CIRCLE ( 'NONE', #2, 1.529000000000000359 ) ;
#215 = PERSON_AND_ORGANIZATION_ROLE ( 'creator' ) ;
#216 = VERTEX_POINT ( 'NONE', #56 ) ;
#217 = EDGE_CURVE ( 'NONE', #167, #167, #214, .T. ) ;
#218 = PERSON_AND_ORGANIZATION_ROLE ( 'classification_officer' ) ;
#219 = DATE_TIME_ROLE ( 'classification_date' ) ;
#220 = FACE_BOUND ( 'NONE', #222, .T. ) ;
#221 = EDGE_LOOP ( 'NONE', ( #104 ) ) ;
#222 = EDGE_LOOP ( 'NONE', ( #90 ) ) ;
#223 = CC_DESIGN_PERSON_AND_ORGANIZATION_ASSIGNMENT ( #35, #133, ( #53 ) ) ;
#224 = DIRECTION ( 'NONE',  ( 4.275831445896958607E-31, 1.000000000000000000, 1.224646799147353207E-16 ) ) ;
#225 = ADVANCED_FACE ( 'NONE', ( #228, #150 ), #139, .T. ) ;
#226 = EDGE_CURVE ( 'NONE', #203, #203, #170, .T. ) ;
#227 = AXIS2_PLACEMENT_3D ( 'NONE', #86, #3, #181 ) ;
#228 = FACE_OUTER_BOUND ( 'NONE', #118, .T. ) ;
#229 = APPROVAL_PERSON_ORGANIZATION ( #38, #204, #136 ) ;
#230 = CARTESIAN_POINT ( 'NONE',  ( 1.944755105735625216E-13, -6.821282671250756903E-15, 55.70000000000000284 ) ) ;
#231 = AXIS2_PLACEMENT_3D ( 'NONE', #7, #146, #66 ) ;
#232 = DIRECTION ( 'NONE',  ( 0.0000000000000000000, 1.000000000000000000, 0.0000000000000000000 ) ) ;
#233 = VERTEX_POINT ( 'NONE', #71 ) ;
#234 = PERSON_AND_ORGANIZATION_ROLE ( 'design_owner' ) ;
#235 = DIRECTION ( 'NONE',  ( -3.491481338843133355E-15, 1.224646799147353207E-16, -1.000000000000000000 ) ) ;
#236 = APPROVAL_DATE_TIME ( #241, #187 ) ;
#237 = AXIS2_PLACEMENT_3D ( 'NONE', #117, #62, #36 ) ;
#238 = CC_DESIGN_DATE_AND_TIME_ASSIGNMENT ( #100, #219, ( #74 ) ) ;
#239 = APPROVAL_DATE_TIME ( #57, #204 ) ;
#240 = PLANE ( 'NONE',  #76 ) ;
#241 = DATE_AND_TIME ( #173, #83 ) ;
#242 = ORIENTED_EDGE ( 'NONE', *, *, #112, .T. ) ;
#243 = DIRECTION ( 'NONE',  ( 0.0000000000000000000, 1.000000000000000000, 0.0000000000000000000 ) ) ;
ENDSEC;
END-ISO-10303-21;
