ISO-10303-21;
HEADER;
FILE_DESCRIPTION (( 'STEP AP203' ),
    '1' );
FILE_NAME ('969421.step',
    '2021-11-30T13:33:27',
    ( '' ),
    ( '' ),
    'SwSTEP 2.0',
    'SolidWorks 2019',
    '' );
FILE_SCHEMA (( 'CONFIG_CONTROL_DESIGN' ));
ENDSEC;

DATA;
#1 = EDGE_LOOP ( 'NONE', ( #167 ) ) ;
#2 = EDGE_LOOP ( 'NONE', ( #225 ) ) ;
#3 = DIRECTION ( 'NONE',  ( 0.0000000000000000000, 1.000000000000000000, 0.0000000000000000000 ) ) ;
#4 = CALENDAR_DATE ( 2021, 30, 11 ) ;
#5 = DIRECTION ( 'NONE',  ( -3.491481338843133355E-15, 1.224646799147353207E-16, -1.000000000000000000 ) ) ;
#6 = PERSON_AND_ORGANIZATION ( #79, #161 ) ;
#7 = DIRECTION ( 'NONE',  ( -3.491481338843133355E-15, 1.224646799147353207E-16, -1.000000000000000000 ) ) ;
#8 = DIRECTION ( 'NONE',  ( -4.275831445896958607E-31, -1.000000000000000000, -1.224646799147353207E-16 ) ) ;
#9 =( NAMED_UNIT ( * ) PLANE_ANGLE_UNIT ( ) SI_UNIT ( $, .RADIAN. ) );
#10 = FACE_OUTER_BOUND ( 'NONE', #22, .T. ) ;
#11 = CARTESIAN_POINT ( 'NONE',  ( 7.139590935265445095E-14, 1.499999999999993339, 20.44860115916035426 ) ) ;
#12 = ADVANCED_FACE ( 'NONE', ( #210, #146 ), #102, .T. ) ;
#13 = AXIS2_PLACEMENT_3D ( 'NONE', #178, #134, #45 ) ;
#14 = FACE_OUTER_BOUND ( 'NONE', #69, .T. ) ;
#15 = ORIENTED_EDGE ( 'NONE', *, *, #90, .T. ) ;
#16 = ORIENTED_EDGE ( 'NONE', *, *, #54, .F. ) ;
#17 = CIRCLE ( 'NONE', #75, 1.758999999999997454 ) ;
#18 = CALENDAR_DATE ( 2021, 30, 11 ) ;
#19 = AXIS2_PLACEMENT_3D ( 'NONE', #216, #175, #197 ) ;
#20 = DIRECTION ( 'NONE',  ( -3.491481338843133355E-15, 1.224646799147353207E-16, -1.000000000000000000 ) ) ;
#21 =( NAMED_UNIT ( * ) SI_UNIT ( $, .STERADIAN. ) SOLID_ANGLE_UNIT ( ) );
#22 = EDGE_LOOP ( 'NONE', ( #88 ) ) ;
#23 = CALENDAR_DATE ( 2021, 30, 11 ) ;
#24 = DIRECTION ( 'NONE',  ( 0.0000000000000000000, 1.000000000000000000, 0.0000000000000000000 ) ) ;
#25 = CARTESIAN_POINT ( 'NONE',  ( 0.0000000000000000000, 1.509000000000000341, 0.0000000000000000000 ) ) ;
#26 = ADVANCED_FACE ( 'NONE', ( #130, #53 ), #32, .T. ) ;
#27 = DIRECTION ( 'NONE',  ( 0.0000000000000000000, 1.000000000000000000, 0.0000000000000000000 ) ) ;
#28 = AXIS2_PLACEMENT_3D ( 'NONE', #191, #5, #77 ) ;
#29 = APPROVAL_PERSON_ORGANIZATION ( #138, #242, #60 ) ;
#30 = DATE_TIME_ROLE ( 'classification_date' ) ;
#31 = COORDINATED_UNIVERSAL_TIME_OFFSET ( 1, 0, .AHEAD. ) ;
#32 = CONICAL_SURFACE ( 'NONE', #132, 1.200000000000000178, 0.7853981633974450594 ) ;
#33 = PRODUCT_RELATED_PRODUCT_CATEGORY ( 'detail', '', ( #48 ) ) ;
#34 = EDGE_LOOP ( 'NONE', ( #224 ) ) ;
#35 = EDGE_LOOP ( 'NONE', ( #16 ) ) ;
#36 = APPLICATION_CONTEXT ( 'configuration controlled 3d designs of mechanical parts and assemblies' ) ;
#37 = ORIENTED_EDGE ( 'NONE', *, *, #65, .T. ) ;
#38 = CC_DESIGN_PERSON_AND_ORGANIZATION_ASSIGNMENT ( #213, #42, ( #48 ) ) ;
#39 = PERSON_AND_ORGANIZATION ( #79, #161 ) ;
#40 = APPROVAL_ROLE ( '' ) ;
#41 = CARTESIAN_POINT ( 'NONE',  ( -3.226114825929255986E-31, 1.131568756018371943E-32, -9.239960099566782291E-17 ) ) ;
#42 = PERSON_AND_ORGANIZATION_ROLE ( 'design_owner' ) ;
#43 = CARTESIAN_POINT ( 'NONE',  ( 6.982962677686266711E-14, 1.319038728851098123E-32, 20.00000000000000000 ) ) ;
#44 = DIRECTION ( 'NONE',  ( 1.000000000000000000, 0.0000000000000000000, 0.0000000000000000000 ) ) ;
#45 = DIRECTION ( 'NONE',  ( 4.275831445896958607E-31, 1.000000000000000000, 1.224646799147353207E-16 ) ) ;
#46 = COORDINATED_UNIVERSAL_TIME_OFFSET ( 1, 0, .AHEAD. ) ;
#47 = FACE_BOUND ( 'NONE', #164, .T. ) ;
#48 = PRODUCT ( '969421', '969421', '', ( #131 ) ) ;
#49 = LOCAL_TIME ( 14, 33, 27.00000000000000000, #31 ) ;
#50 = EDGE_CURVE ( 'NONE', #160, #160, #108, .T. ) ;
#51 = APPLICATION_CONTEXT ( 'configuration controlled 3d designs of mechanical parts and assemblies' ) ;
#52 = DIRECTION ( 'NONE',  ( 3.491481338843133355E-15, -1.224646799147353207E-16, 1.000000000000000000 ) ) ;
#53 = FACE_BOUND ( 'NONE', #124, .T. ) ;
#54 = EDGE_CURVE ( 'NONE', #220, #220, #221, .T. ) ;
#55 = EDGE_LOOP ( 'NONE', ( #171 ) ) ;
#56 = PERSON_AND_ORGANIZATION ( #79, #161 ) ;
#57 = ORIENTED_EDGE ( 'NONE', *, *, #109, .F. ) ;
#58 = CIRCLE ( 'NONE', #114, 1.509000000000000341 ) ;
#59 = DIRECTION ( 'NONE',  ( -3.491481338843133355E-15, 1.224646799147353207E-16, -1.000000000000000000 ) ) ;
#60 = APPROVAL_ROLE ( '' ) ;
#61 = DIRECTION ( 'NONE',  ( 3.491481338843133355E-15, -1.224646799147353207E-16, 1.000000000000000000 ) ) ;
#62 = APPROVAL_DATE_TIME ( #237, #242 ) ;
#63 = CARTESIAN_POINT ( 'NONE',  ( 1.955229549752154679E-13, -6.858022075225178552E-15, 56.00000000000000000 ) ) ;
#64 = DATE_AND_TIME ( #18, #209 ) ;
#65 = EDGE_CURVE ( 'NONE', #78, #78, #17, .T. ) ;
#66 = PRODUCT_DEFINITION_FORMATION_WITH_SPECIFIED_SOURCE ( 'ANY', '', #48, .NOT_KNOWN. ) ;
#67 = CC_DESIGN_APPROVAL ( #127, ( #66 ) ) ;
#68 = ADVANCED_FACE ( 'NONE', ( #14, #233 ), #85, .T. ) ;
#69 = EDGE_LOOP ( 'NONE', ( #141 ) ) ;
#70 = DIRECTION ( 'NONE',  ( -3.491481338843133355E-15, 1.224646799147353207E-16, -1.000000000000000000 ) ) ;
#71 = ADVANCED_FACE ( 'NONE', ( #151 ), #212, .F. ) ;
#72 = ORIENTED_EDGE ( 'NONE', *, *, #93, .T. ) ;
#73 = EDGE_CURVE ( 'NONE', #155, #155, #169, .T. ) ;
#74 = MANIFOLD_SOLID_BREP ( 'Corps-Déplacer/Copier1[1]', #84 ) ;
#75 = AXIS2_PLACEMENT_3D ( 'NONE', #231, #20, #105 ) ;
#76 = CARTESIAN_POINT ( 'NONE',  ( 7.139590935265445095E-14, -2.504231395660658597E-15, 20.44860115916035426 ) ) ;
#77 = DIRECTION ( 'NONE',  ( 4.275831445896958607E-31, 1.000000000000000000, 1.224646799147353207E-16 ) ) ;
#78 = VERTEX_POINT ( 'NONE', #110 ) ;
#79 = PERSON ( 'UNSPECIFIED', 'UNSPECIFIED', 'UNSPECIFIED', ('UNSPECIFIED'), ('UNSPECIFIED'), ('UNSPECIFIED') ) ;
#80 = FACE_OUTER_BOUND ( 'NONE', #107, .T. ) ;
#81 = DIRECTION ( 'NONE',  ( 3.491481338843133355E-15, -1.224646799147353207E-16, 1.000000000000000000 ) ) ;
#82 = FACE_OUTER_BOUND ( 'NONE', #168, .T. ) ;
#83 = EDGE_LOOP ( 'NONE', ( #37 ) ) ;
#84 = CLOSED_SHELL ( 'NONE', ( #142, #12, #163, #26, #219 ) ) ;
#85 = CYLINDRICAL_SURFACE ( 'NONE', #28, 1.758999999999997454 ) ;
#86 = CC_DESIGN_PERSON_AND_ORGANIZATION_ASSIGNMENT ( #150, #232, ( #66 ) ) ;
#87 = ADVANCED_BREP_SHAPE_REPRESENTATION ( '969421', ( #74, #162, #147 ), #89 ) ;
#88 = ORIENTED_EDGE ( 'NONE', *, *, #50, .F. ) ;
#89 =( GEOMETRIC_REPRESENTATION_CONTEXT ( 3 ) GLOBAL_UNCERTAINTY_ASSIGNED_CONTEXT ( ( #181 ) ) GLOBAL_UNIT_ASSIGNED_CONTEXT ( ( #115, #9, #21 ) ) REPRESENTATION_CONTEXT ( 'NONE', 'WORKASPACE' ) );
#90 = EDGE_CURVE ( 'NONE', #117, #117, #58, .T. ) ;
#91 = EDGE_LOOP ( 'NONE', ( #184 ) ) ;
#92 = APPLICATION_PROTOCOL_DEFINITION ( 'international standard', 'config_control_design', 1994, #36 ) ;
#93 = EDGE_CURVE ( 'NONE', #135, #135, #230, .T. ) ;
#94 = DIRECTION ( 'NONE',  ( -4.275831445896958607E-31, -1.000000000000000000, -1.224646799147353207E-16 ) ) ;
#95 = CARTESIAN_POINT ( 'NONE',  ( 0.0000000000000000000, 0.0000000000000000000, 0.0000000000000000000 ) ) ;
#96 = FACE_OUTER_BOUND ( 'NONE', #83, .T. ) ;
#97 = VERTEX_POINT ( 'NONE', #193 ) ;
#98 = AXIS2_PLACEMENT_3D ( 'NONE', #43, #61, #100 ) ;
#99 = CC_DESIGN_APPROVAL ( #242, ( #200 ) ) ;
#100 = DIRECTION ( 'NONE',  ( -4.275831445896958607E-31, -1.000000000000000000, -1.224646799147353207E-16 ) ) ;
#101 = APPROVAL_DATE_TIME ( #177, #104 ) ;
#102 = CONICAL_SURFACE ( 'NONE', #198, 1.499999999999996003, 0.5235987755982861591 ) ;
#103 = AXIS2_PLACEMENT_3D ( 'NONE', #63, #59, #27 ) ;
#104 = APPROVAL ( #199, 'UNSPECIFIED' ) ;
#105 = DIRECTION ( 'NONE',  ( 4.379601920152902233E-31, 1.000000000000000000, 1.232748348476982455E-16 ) ) ;
#106 = CARTESIAN_POINT ( 'NONE',  ( -6.452229651858511972E-31, 2.263137512036743886E-32, -1.847992019913356458E-16 ) ) ;
#107 = EDGE_LOOP ( 'NONE', ( #72 ) ) ;
#108 = CIRCLE ( 'NONE', #125, 1.758999999999997232 ) ;
#109 = EDGE_CURVE ( 'NONE', #97, #97, #202, .T. ) ;
#110 = CARTESIAN_POINT ( 'NONE',  ( 8.728703347107835360E-16, 1.758999999999997454, 0.2500000000000000555 ) ) ;
#111 = DIRECTION ( 'NONE',  ( -3.491481338843133355E-15, 1.224646799147353207E-16, -1.000000000000000000 ) ) ;
#112 = CC_DESIGN_PERSON_AND_ORGANIZATION_ASSIGNMENT ( #6, #215, ( #200 ) ) ;
#113 = CARTESIAN_POINT ( 'NONE',  ( 6.982962677686266711E-14, 1.758999999999995012, 20.00000000000000000 ) ) ;
#114 = AXIS2_PLACEMENT_3D ( 'NONE', #106, #7, #143 ) ;
#115 =( LENGTH_UNIT ( ) NAMED_UNIT ( * ) SI_UNIT ( .MILLI., .METRE. ) );
#116 = PLANE ( 'NONE',  #13 ) ;
#117 = VERTEX_POINT ( 'NONE', #25 ) ;
#118 = FACE_OUTER_BOUND ( 'NONE', #1, .T. ) ;
#119 = AXIS2_PLACEMENT_3D ( 'NONE', #154, #121, #236 ) ;
#120 = LOCAL_TIME ( 14, 33, 27.00000000000000000, #195 ) ;
#121 = DIRECTION ( 'NONE',  ( -3.491481338843133355E-15, 1.224646799147353207E-16, -1.000000000000000000 ) ) ;
#122 = APPROVAL_PERSON_ORGANIZATION ( #39, #104, #172 ) ;
#123 = CARTESIAN_POINT ( 'NONE',  ( 1.944755105735625216E-13, -6.821282671250756903E-15, 55.70000000000000284 ) ) ;
#124 = EDGE_LOOP ( 'NONE', ( #139 ) ) ;
#125 = AXIS2_PLACEMENT_3D ( 'NONE', #186, #144, #3 ) ;
#126 = CC_DESIGN_SECURITY_CLASSIFICATION ( #200, ( #66 ) ) ;
#127 = APPROVAL ( #241, 'UNSPECIFIED' ) ;
#128 = ORIENTED_EDGE ( 'NONE', *, *, #90, .F. ) ;
#129 = PERSON_AND_ORGANIZATION_ROLE ( 'creator' ) ;
#130 = FACE_OUTER_BOUND ( 'NONE', #2, .T. ) ;
#131 = MECHANICAL_CONTEXT ( 'NONE', #36, 'mechanical' ) ;
#132 = AXIS2_PLACEMENT_3D ( 'NONE', #207, #189, #206 ) ;
#133 = CYLINDRICAL_SURFACE ( 'NONE', #119, 1.499999999999997780 ) ;
#134 = DIRECTION ( 'NONE',  ( -3.491481338843133355E-15, 1.224646799147353207E-16, -1.000000000000000000 ) ) ;
#135 = VERTEX_POINT ( 'NONE', #196 ) ;
#136 = CARTESIAN_POINT ( 'NONE',  ( 6.982962677686266711E-14, 1.758999999999995012, 20.00000000000000000 ) ) ;
#137 = APPROVAL_DATE_TIME ( #64, #127 ) ;
#138 = PERSON_AND_ORGANIZATION ( #79, #161 ) ;
#139 = ORIENTED_EDGE ( 'NONE', *, *, #109, .T. ) ;
#140 = AXIS2_PLACEMENT_3D ( 'NONE', #149, #183, #227 ) ;
#141 = ORIENTED_EDGE ( 'NONE', *, *, #65, .F. ) ;
#142 = ADVANCED_FACE ( 'NONE', ( #118 ), #157, .F. ) ;
#143 = DIRECTION ( 'NONE',  ( 4.275831445896958607E-31, 1.000000000000000000, 1.224646799147353207E-16 ) ) ;
#144 = DIRECTION ( 'NONE',  ( -3.491481338843133355E-15, 1.224646799147353207E-16, -1.000000000000000000 ) ) ;
#145 = AXIS2_PLACEMENT_3D ( 'NONE', #194, #81, #8 ) ;
#146 = FACE_BOUND ( 'NONE', #91, .T. ) ;
#147 = AXIS2_PLACEMENT_3D ( 'NONE', #95, #153, #44 ) ;
#148 = PRODUCT_DEFINITION ( 'UNKNOWN', '', #66, #223 ) ;
#149 = CARTESIAN_POINT ( 'NONE',  ( 7.139590935265445095E-14, -2.504231395660658597E-15, 20.44860115916035426 ) ) ;
#150 = PERSON_AND_ORGANIZATION ( #79, #161 ) ;
#151 = FACE_OUTER_BOUND ( 'NONE', #203, .T. ) ;
#152 = COORDINATED_UNIVERSAL_TIME_OFFSET ( 1, 0, .AHEAD. ) ;
#153 = DIRECTION ( 'NONE',  ( 0.0000000000000000000, 0.0000000000000000000, 1.000000000000000000 ) ) ;
#154 = CARTESIAN_POINT ( 'NONE',  ( 0.0000000000000000000, 0.0000000000000000000, 0.0000000000000000000 ) ) ;
#155 = VERTEX_POINT ( 'NONE', #113 ) ;
#156 = CONICAL_SURFACE ( 'NONE', #19, 1.758999999999997454, 0.7853981633974426169 ) ;
#157 = PLANE ( 'NONE',  #145 ) ;
#158 = ADVANCED_FACE ( 'NONE', ( #47, #96 ), #156, .T. ) ;
#159 = PERSON_AND_ORGANIZATION ( #79, #161 ) ;
#160 = VERTEX_POINT ( 'NONE', #136 ) ;
#161 = ORGANIZATION ( 'UNSPECIFIED', 'UNSPECIFIED', '' ) ;
#162 = MANIFOLD_SOLID_BREP ( 'Corps-Déplacer/Copier1[2]', #228 ) ;
#163 = ADVANCED_FACE ( 'NONE', ( #239, #80 ), #133, .T. ) ;
#164 = EDGE_LOOP ( 'NONE', ( #128 ) ) ;
#165 = AXIS2_PLACEMENT_3D ( 'NONE', #41, #52, #94 ) ;
#166 = DIRECTION ( 'NONE',  ( 0.0000000000000000000, 1.000000000000000000, 0.0000000000000000000 ) ) ;
#167 = ORIENTED_EDGE ( 'NONE', *, *, #73, .T. ) ;
#168 = EDGE_LOOP ( 'NONE', ( #57 ) ) ;
#169 = CIRCLE ( 'NONE', #182, 1.758999999999997232 ) ;
#170 = APPLICATION_PROTOCOL_DEFINITION ( 'international standard', 'config_control_design', 1994, #51 ) ;
#171 = ORIENTED_EDGE ( 'NONE', *, *, #73, .F. ) ;
#172 = APPROVAL_ROLE ( '' ) ;
#173 = CARTESIAN_POINT ( 'NONE',  ( 6.982962677686266711E-14, -2.449293598294706513E-15, 20.00000000000000000 ) ) ;
#174 = CALENDAR_DATE ( 2021, 30, 11 ) ;
#175 = DIRECTION ( 'NONE',  ( 3.491481338843133355E-15, -1.224646799147353207E-16, 1.000000000000000000 ) ) ;
#176 = LOCAL_TIME ( 14, 33, 27.00000000000000000, #179 ) ;
#177 = DATE_AND_TIME ( #174, #49 ) ;
#178 = CARTESIAN_POINT ( 'NONE',  ( 1.955229549752154679E-13, 8.998558695971043013E-33, 56.00000000000000000 ) ) ;
#179 = COORDINATED_UNIVERSAL_TIME_OFFSET ( 1, 0, .AHEAD. ) ;
#180 = CC_DESIGN_DATE_AND_TIME_ASSIGNMENT ( #238, #217, ( #148 ) ) ;
#181 = UNCERTAINTY_MEASURE_WITH_UNIT (LENGTH_MEASURE( 1.000000000000000082E-05 ), #115, 'distance_accuracy_value', 'NONE');
#182 = AXIS2_PLACEMENT_3D ( 'NONE', #173, #70, #166 ) ;
#183 = DIRECTION ( 'NONE',  ( -3.491481338843133355E-15, 1.224646799147353207E-16, -1.000000000000000000 ) ) ;
#184 = ORIENTED_EDGE ( 'NONE', *, *, #54, .T. ) ;
#185 = ADVANCED_FACE ( 'NONE', ( #10 ), #214, .T. ) ;
#186 = CARTESIAN_POINT ( 'NONE',  ( 6.982962677686266711E-14, -2.449293598294706513E-15, 20.00000000000000000 ) ) ;
#187 = CC_DESIGN_APPROVAL ( #104, ( #148 ) ) ;
#188 = PERSON_AND_ORGANIZATION ( #79, #161 ) ;
#189 = DIRECTION ( 'NONE',  ( -3.491481338843133355E-15, 1.224646799147353207E-16, -1.000000000000000000 ) ) ;
#190 = SECURITY_CLASSIFICATION_LEVEL ( 'unclassified' ) ;
#191 = CARTESIAN_POINT ( 'NONE',  ( 0.0000000000000000000, 0.0000000000000000000, 0.0000000000000000000 ) ) ;
#192 = CALENDAR_DATE ( 2021, 30, 11 ) ;
#193 = CARTESIAN_POINT ( 'NONE',  ( 1.955229549752154679E-13, 1.199999999999993072, 56.00000000000000000 ) ) ;
#194 = CARTESIAN_POINT ( 'NONE',  ( 6.982962677686266711E-14, 1.319038728851098123E-32, 20.00000000000000000 ) ) ;
#195 = COORDINATED_UNIVERSAL_TIME_OFFSET ( 1, 0, .AHEAD. ) ;
#196 = CARTESIAN_POINT ( 'NONE',  ( 1.944755105735625216E-13, 1.499999999999993117, 55.70000000000000284 ) ) ;
#197 = DIRECTION ( 'NONE',  ( -4.379601920152902233E-31, -1.000000000000000000, -1.232748348476982455E-16 ) ) ;
#198 = AXIS2_PLACEMENT_3D ( 'NONE', #76, #111, #229 ) ;
#199 = APPROVAL_STATUS ( 'not_yet_approved' ) ;
#200 = SECURITY_CLASSIFICATION ( '', '', #190 ) ;
#201 = APPROVAL_STATUS ( 'not_yet_approved' ) ;
#202 = CIRCLE ( 'NONE', #103, 1.200000000000000178 ) ;
#203 = EDGE_LOOP ( 'NONE', ( #15 ) ) ;
#204 = AXIS2_PLACEMENT_3D ( 'NONE', #123, #234, #24 ) ;
#205 = CC_DESIGN_PERSON_AND_ORGANIZATION_ASSIGNMENT ( #56, #211, ( #66 ) ) ;
#206 = DIRECTION ( 'NONE',  ( 0.0000000000000000000, 1.000000000000000000, 0.0000000000000000000 ) ) ;
#207 = CARTESIAN_POINT ( 'NONE',  ( 1.955229549752154679E-13, -6.858022075225178552E-15, 56.00000000000000000 ) ) ;
#208 = APPROVAL_PERSON_ORGANIZATION ( #188, #127, #40 ) ;
#209 = LOCAL_TIME ( 14, 33, 27.00000000000000000, #46 ) ;
#210 = FACE_OUTER_BOUND ( 'NONE', #55, .T. ) ;
#211 = PERSON_AND_ORGANIZATION_ROLE ( 'design_supplier' ) ;
#212 = PLANE ( 'NONE',  #165 ) ;
#213 = PERSON_AND_ORGANIZATION ( #79, #161 ) ;
#214 = PLANE ( 'NONE',  #98 ) ;
#215 = PERSON_AND_ORGANIZATION_ROLE ( 'classification_officer' ) ;
#216 = CARTESIAN_POINT ( 'NONE',  ( 8.728703347107827472E-16, -3.061616997868381169E-17, 0.2499999999999998335 ) ) ;
#217 = DATE_TIME_ROLE ( 'creation_date' ) ;
#218 = PRODUCT_DEFINITION_SHAPE ( 'NONE', 'NONE',  #148 ) ;
#219 = ADVANCED_FACE ( 'NONE', ( #82 ), #116, .F. ) ;
#220 = VERTEX_POINT ( 'NONE', #11 ) ;
#221 = CIRCLE ( 'NONE', #140, 1.499999999999996003 ) ;
#222 = CC_DESIGN_DATE_AND_TIME_ASSIGNMENT ( #240, #30, ( #200 ) ) ;
#223 = DESIGN_CONTEXT ( 'detailed design', #51, 'design' ) ;
#224 = ORIENTED_EDGE ( 'NONE', *, *, #50, .T. ) ;
#225 = ORIENTED_EDGE ( 'NONE', *, *, #93, .F. ) ;
#226 = CC_DESIGN_PERSON_AND_ORGANIZATION_ASSIGNMENT ( #159, #129, ( #148 ) ) ;
#227 = DIRECTION ( 'NONE',  ( 0.0000000000000000000, 1.000000000000000000, 0.0000000000000000000 ) ) ;
#228 = CLOSED_SHELL ( 'NONE', ( #71, #158, #68, #185 ) ) ;
#229 = DIRECTION ( 'NONE',  ( 0.0000000000000000000, 1.000000000000000000, 0.0000000000000000000 ) ) ;
#230 = CIRCLE ( 'NONE', #204, 1.499999999999999778 ) ;
#231 = CARTESIAN_POINT ( 'NONE',  ( 8.728703347107827472E-16, -3.061616997868381169E-17, 0.2499999999999998335 ) ) ;
#232 = PERSON_AND_ORGANIZATION_ROLE ( 'creator' ) ;
#233 = FACE_OUTER_BOUND ( 'NONE', #34, .T. ) ;
#234 = DIRECTION ( 'NONE',  ( -3.491481338843133355E-15, 1.224646799147353207E-16, -1.000000000000000000 ) ) ;
#235 = SHAPE_DEFINITION_REPRESENTATION ( #218, #87 ) ;
#236 = DIRECTION ( 'NONE',  ( 4.275831445896959482E-31, 1.000000000000000000, 1.224646799147353207E-16 ) ) ;
#237 = DATE_AND_TIME ( #192, #243 ) ;
#238 = DATE_AND_TIME ( #4, #176 ) ;
#239 = FACE_OUTER_BOUND ( 'NONE', #35, .T. ) ;
#240 = DATE_AND_TIME ( #23, #120 ) ;
#241 = APPROVAL_STATUS ( 'not_yet_approved' ) ;
#242 = APPROVAL ( #201, 'UNSPECIFIED' ) ;
#243 = LOCAL_TIME ( 14, 33, 27.00000000000000000, #152 ) ;
ENDSEC;
END-ISO-10303-21;
