ISO-10303-21;
HEADER;
FILE_DESCRIPTION (( 'STEP AP203' ),
    '1' );
FILE_NAME ('969417.step',
    '2021-11-30T13:08:26',
    ( '' ),
    ( '' ),
    'SwSTEP 2.0',
    'SolidWorks 2019',
    '' );
FILE_SCHEMA (( 'CONFIG_CONTROL_DESIGN' ));
ENDSEC;

DATA;
#1 = EDGE_LOOP ( 'NONE', ( #154 ) ) ;
#2 = ADVANCED_FACE ( 'NONE', ( #131, #208 ), #133, .T. ) ;
#3 = CYLINDRICAL_SURFACE ( 'NONE', #184, 1.748999999999999444 ) ;
#4 = DIRECTION ( 'NONE',  ( -4.275831445896958607E-31, -1.000000000000000000, -1.224646799147353207E-16 ) ) ;
#5 = LOCAL_TIME ( 14, 8, 26.00000000000000000, #118 ) ;
#6 = DIRECTION ( 'NONE',  ( -3.491481338843133355E-15, 1.224646799147353207E-16, -1.000000000000000000 ) ) ;
#7 = PLANE ( 'NONE',  #110 ) ;
#8 = PLANE ( 'NONE',  #142 ) ;
#9 = ADVANCED_FACE ( 'NONE', ( #196 ), #22, .F. ) ;
#10 = PERSON_AND_ORGANIZATION ( #212, #135 ) ;
#11 = APPLICATION_PROTOCOL_DEFINITION ( 'international standard', 'config_control_design', 1994, #62 ) ;
#12 = EDGE_LOOP ( 'NONE', ( #205 ) ) ;
#13 = CIRCLE ( 'NONE', #152, 1.000000000000005551 ) ;
#14 = VERTEX_POINT ( 'NONE', #88 ) ;
#15 = DIRECTION ( 'NONE',  ( 0.0000000000000000000, 1.000000000000000000, 0.0000000000000000000 ) ) ;
#16 = EDGE_LOOP ( 'NONE', ( #214 ) ) ;
#17 = LOCAL_TIME ( 14, 8, 26.00000000000000000, #203 ) ;
#18 = DATE_AND_TIME ( #94, #5 ) ;
#19 = DATE_AND_TIME ( #178, #81 ) ;
#20 = DIRECTION ( 'NONE',  ( 3.491481338843133355E-15, -1.224646799147353207E-16, 1.000000000000000000 ) ) ;
#21 = PERSON_AND_ORGANIZATION_ROLE ( 'creator' ) ;
#22 = PLANE ( 'NONE',  #191 ) ;
#23 = EDGE_CURVE ( 'NONE', #14, #14, #31, .T. ) ;
#24 = CARTESIAN_POINT ( 'NONE',  ( -3.204735668699771710E-31, 1.124069957105062874E-32, -9.178727759609415999E-17 ) ) ;
#25 = FACE_OUTER_BOUND ( 'NONE', #39, .T. ) ;
#26 = CIRCLE ( 'NONE', #76, 1.748999999999997668 ) ;
#27 = CARTESIAN_POINT ( 'NONE',  ( 7.284729089006764040E-14, -2.555139007119454409E-15, 20.86429335297689036 ) ) ;
#28 = ADVANCED_FACE ( 'NONE', ( #99, #25 ), #3, .T. ) ;
#29 = CARTESIAN_POINT ( 'NONE',  ( 6.982962677686266711E-14, 1.311539929937791790E-32, 20.00000000000000000 ) ) ;
#30 = CALENDAR_DATE ( 2021, 30, 11 ) ;
#31 = CIRCLE ( 'NONE', #138, 1.749000000000001220 ) ;
#32 = DIRECTION ( 'NONE',  ( 3.491481338843133355E-15, -1.224646799147353207E-16, 1.000000000000000000 ) ) ;
#33 = PRODUCT_DEFINITION_SHAPE ( 'NONE', 'NONE',  #192 ) ;
#34 = MECHANICAL_CONTEXT ( 'NONE', #62, 'mechanical' ) ;
#35 = CIRCLE ( 'NONE', #129, 1.249999999999996003 ) ;
#36 = LOCAL_TIME ( 14, 8, 26.00000000000000000, #115 ) ;
#37 = PERSON_AND_ORGANIZATION_ROLE ( 'design_supplier' ) ;
#38 = DIRECTION ( 'NONE',  ( -3.491481338843133355E-15, 1.224646799147353207E-16, -1.000000000000000000 ) ) ;
#39 = EDGE_LOOP ( 'NONE', ( #197 ) ) ;
#40 = EDGE_LOOP ( 'NONE', ( #114 ) ) ;
#41 = PERSON_AND_ORGANIZATION ( #212, #135 ) ;
#42 = CARTESIAN_POINT ( 'NONE',  ( 6.982962677686266711E-14, -2.449293598294706513E-15, 20.00000000000000000 ) ) ;
#43 = DIRECTION ( 'NONE',  ( -3.491481338843133355E-15, 1.224646799147353207E-16, -1.000000000000000000 ) ) ;
#44 = CIRCLE ( 'NONE', #215, 1.499000000000000554 ) ;
#45 = CC_DESIGN_APPROVAL ( #92, ( #162 ) ) ;
#46 = FACE_OUTER_BOUND ( 'NONE', #74, .T. ) ;
#47 = EDGE_CURVE ( 'NONE', #222, #222, #13, .T. ) ;
#48 = CARTESIAN_POINT ( 'NONE',  ( 8.728703347107835360E-16, 1.748999999999997668, 0.2500000000000000555 ) ) ;
#49 = MANIFOLD_SOLID_BREP ( 'Corps-Déplacer/Copier1[1]', #134 ) ;
#50 = APPROVAL_ROLE ( '' ) ;
#51 = CARTESIAN_POINT ( 'NONE',  ( 1.955229549752154679E-13, 0.9999999999999985567, 56.00000000000000000 ) ) ;
#52 = AXIS2_PLACEMENT_3D ( 'NONE', #227, #55, #217 ) ;
#53 = EDGE_CURVE ( 'NONE', #69, #69, #218, .T. ) ;
#54 = PERSON_AND_ORGANIZATION ( #212, #135 ) ;
#55 = DIRECTION ( 'NONE',  ( -3.491481338843133355E-15, 1.224646799147353207E-16, -1.000000000000000000 ) ) ;
#56 = ORIENTED_EDGE ( 'NONE', *, *, #177, .F. ) ;
#57 = APPROVAL ( #73, 'UNSPECIFIED' ) ;
#58 = ORIENTED_EDGE ( 'NONE', *, *, #53, .F. ) ;
#59 = PERSON_AND_ORGANIZATION ( #212, #135 ) ;
#60 = DIRECTION ( 'NONE',  ( -3.491481338843133355E-15, 1.224646799147353207E-16, -1.000000000000000000 ) ) ;
#61 = CARTESIAN_POINT ( 'NONE',  ( 1.955229549752154679E-13, 7.498798913309223722E-33, 56.00000000000000000 ) ) ;
#62 = APPLICATION_CONTEXT ( 'configuration controlled 3d designs of mechanical parts and assemblies' ) ;
#63 = AXIS2_PLACEMENT_3D ( 'NONE', #137, #43, #148 ) ;
#64 = PRODUCT_RELATED_PRODUCT_CATEGORY ( 'detail', '', ( #109 ) ) ;
#65 = DIRECTION ( 'NONE',  ( 3.491481338843133355E-15, -1.224646799147353207E-16, 1.000000000000000000 ) ) ;
#66 = CARTESIAN_POINT ( 'NONE',  ( 1.955229549752154679E-13, -6.858022075225178552E-15, 56.00000000000000000 ) ) ;
#67 = APPROVAL_STATUS ( 'not_yet_approved' ) ;
#68 = DIRECTION ( 'NONE',  ( 3.491481338843133355E-15, -1.224646799147353207E-16, 1.000000000000000000 ) ) ;
#69 = VERTEX_POINT ( 'NONE', #172 ) ;
#70 = ADVANCED_FACE ( 'NONE', ( #46, #163 ), #181, .T. ) ;
#71 =( NAMED_UNIT ( * ) SI_UNIT ( $, .STERADIAN. ) SOLID_ANGLE_UNIT ( ) );
#72 = SHAPE_DEFINITION_REPRESENTATION ( #33, #182 ) ;
#73 = APPROVAL_STATUS ( 'not_yet_approved' ) ;
#74 = EDGE_LOOP ( 'NONE', ( #58 ) ) ;
#75 = EDGE_CURVE ( 'NONE', #241, #241, #44, .T. ) ;
#76 = AXIS2_PLACEMENT_3D ( 'NONE', #219, #123, #104 ) ;
#77 = DIRECTION ( 'NONE',  ( 4.275831445896957731E-31, 1.000000000000000000, 1.224646799147353454E-16 ) ) ;
#78 = CALENDAR_DATE ( 2021, 30, 11 ) ;
#79 = EDGE_LOOP ( 'NONE', ( #179 ) ) ;
#80 = CARTESIAN_POINT ( 'NONE',  ( 0.0000000000000000000, 0.0000000000000000000, 0.0000000000000000000 ) ) ;
#81 = LOCAL_TIME ( 14, 8, 26.00000000000000000, #242 ) ;
#82 = CARTESIAN_POINT ( 'NONE',  ( -6.409471337399543419E-31, 2.248139914210125747E-32, -1.835745551921883200E-16 ) ) ;
#83 = CC_DESIGN_PERSON_AND_ORGANIZATION_ASSIGNMENT ( #41, #232, ( #192 ) ) ;
#84 = CARTESIAN_POINT ( 'NONE',  ( 6.982962677686266711E-14, 1.311539929937791790E-32, 20.00000000000000000 ) ) ;
#85 = APPLICATION_PROTOCOL_DEFINITION ( 'international standard', 'config_control_design', 1994, #146 ) ;
#86 = EDGE_LOOP ( 'NONE', ( #188 ) ) ;
#87 = CONICAL_SURFACE ( 'NONE', #161, 1.000000000000005551, 0.7853981633974473908 ) ;
#88 = CARTESIAN_POINT ( 'NONE',  ( 6.982962677686266711E-14, 1.748999999999998778, 20.00000000000000000 ) ) ;
#89 = CARTESIAN_POINT ( 'NONE',  ( 7.284729089006764040E-14, 1.249999999999993339, 20.86429335297689036 ) ) ;
#90 = ADVANCED_FACE ( 'NONE', ( #122 ), #7, .T. ) ;
#91 = PERSON_AND_ORGANIZATION_ROLE ( 'classification_officer' ) ;
#92 = APPROVAL ( #211, 'UNSPECIFIED' ) ;
#93 = DATE_TIME_ROLE ( 'creation_date' ) ;
#94 = CALENDAR_DATE ( 2021, 30, 11 ) ;
#95 = AXIS2_PLACEMENT_3D ( 'NONE', #29, #68, #169 ) ;
#96 = CC_DESIGN_SECURITY_CLASSIFICATION ( #204, ( #162 ) ) ;
#97 = DIRECTION ( 'NONE',  ( 0.0000000000000000000, 1.000000000000000000, 0.0000000000000000000 ) ) ;
#98 = DATE_AND_TIME ( #78, #111 ) ;
#99 = FACE_OUTER_BOUND ( 'NONE', #156, .T. ) ;
#100 = AXIS2_PLACEMENT_3D ( 'NONE', #27, #6, #201 ) ;
#101 = CC_DESIGN_APPROVAL ( #57, ( #204 ) ) ;
#102 = CC_DESIGN_PERSON_AND_ORGANIZATION_ASSIGNMENT ( #151, #91, ( #204 ) ) ;
#103 = DIRECTION ( 'NONE',  ( -3.491481338843133355E-15, 1.224646799147353207E-16, -1.000000000000000000 ) ) ;
#104 = DIRECTION ( 'NONE',  ( 4.404642525756977428E-31, 1.000000000000000000, 1.239796652356210242E-16 ) ) ;
#105 = FACE_BOUND ( 'NONE', #12, .T. ) ;
#106 = DATE_AND_TIME ( #30, #17 ) ;
#107 = CC_DESIGN_DATE_AND_TIME_ASSIGNMENT ( #195, #153, ( #204 ) ) ;
#108 = ORIENTED_EDGE ( 'NONE', *, *, #185, .F. ) ;
#109 = PRODUCT ( '969417', '969417', '', ( #34 ) ) ;
#110 = AXIS2_PLACEMENT_3D ( 'NONE', #84, #65, #160 ) ;
#111 = LOCAL_TIME ( 14, 8, 26.00000000000000000, #190 ) ;
#112 = SECURITY_CLASSIFICATION_LEVEL ( 'unclassified' ) ;
#113 = ORIENTED_EDGE ( 'NONE', *, *, #177, .T. ) ;
#114 = ORIENTED_EDGE ( 'NONE', *, *, #167, .T. ) ;
#115 = COORDINATED_UNIVERSAL_TIME_OFFSET ( 1, 0, .AHEAD. ) ;
#116 = EDGE_LOOP ( 'NONE', ( #170 ) ) ;
#117 = CC_DESIGN_APPROVAL ( #240, ( #192 ) ) ;
#118 = COORDINATED_UNIVERSAL_TIME_OFFSET ( 1, 0, .AHEAD. ) ;
#119 = DIRECTION ( 'NONE',  ( -3.491481338843133355E-15, 1.224646799147353207E-16, -1.000000000000000000 ) ) ;
#120 = ADVANCED_FACE ( 'NONE', ( #236 ), #8, .F. ) ;
#121 = CLOSED_SHELL ( 'NONE', ( #9, #210, #28, #90 ) ) ;
#122 = FACE_OUTER_BOUND ( 'NONE', #176, .T. ) ;
#123 = DIRECTION ( 'NONE',  ( -3.491481338843133355E-15, 1.224646799147353207E-16, -1.000000000000000000 ) ) ;
#124 = FACE_OUTER_BOUND ( 'NONE', #180, .T. ) ;
#125 =( LENGTH_UNIT ( ) NAMED_UNIT ( * ) SI_UNIT ( .MILLI., .METRE. ) );
#126 = AXIS2_PLACEMENT_3D ( 'NONE', #147, #32, #223 ) ;
#127 = CARTESIAN_POINT ( 'NONE',  ( 0.0000000000000000000, 1.499000000000000554, 0.0000000000000000000 ) ) ;
#128 = CARTESIAN_POINT ( 'NONE',  ( 0.0000000000000000000, 0.0000000000000000000, 0.0000000000000000000 ) ) ;
#129 = AXIS2_PLACEMENT_3D ( 'NONE', #198, #141, #234 ) ;
#130 = MANIFOLD_SOLID_BREP ( 'Corps-Déplacer/Copier1[2]', #121 ) ;
#131 = FACE_OUTER_BOUND ( 'NONE', #1, .T. ) ;
#132 = PERSON_AND_ORGANIZATION ( #212, #135 ) ;
#133 = CYLINDRICAL_SURFACE ( 'NONE', #220, 1.250000000000000666 ) ;
#134 = CLOSED_SHELL ( 'NONE', ( #206, #70, #2, #235, #120 ) ) ;
#135 = ORGANIZATION ( 'UNSPECIFIED', 'UNSPECIFIED', '' ) ;
#136 = DIRECTION ( 'NONE',  ( 4.275831445896958607E-31, 1.000000000000000000, 1.224646799147353207E-16 ) ) ;
#137 = CARTESIAN_POINT ( 'NONE',  ( 1.946500846405046877E-13, -6.827405905246494765E-15, 55.75000000000000000 ) ) ;
#138 = AXIS2_PLACEMENT_3D ( 'NONE', #42, #60, #97 ) ;
#139 = DIRECTION ( 'NONE',  ( 4.275831445896958607E-31, 1.000000000000000000, 1.224646799147353207E-16 ) ) ;
#140 = CC_DESIGN_PERSON_AND_ORGANIZATION_ASSIGNMENT ( #10, #238, ( #109 ) ) ;
#141 = DIRECTION ( 'NONE',  ( -3.491481338843133355E-15, 1.224646799147353207E-16, -1.000000000000000000 ) ) ;
#142 = AXIS2_PLACEMENT_3D ( 'NONE', #61, #164, #139 ) ;
#143 = FACE_OUTER_BOUND ( 'NONE', #168, .T. ) ;
#144 =( GEOMETRIC_REPRESENTATION_CONTEXT ( 3 ) GLOBAL_UNCERTAINTY_ASSIGNED_CONTEXT ( ( #239 ) ) GLOBAL_UNIT_ASSIGNED_CONTEXT ( ( #125, #171, #71 ) ) REPRESENTATION_CONTEXT ( 'NONE', 'WORKASPACE' ) );
#145 = DESIGN_CONTEXT ( 'detailed design', #146, 'design' ) ;
#146 = APPLICATION_CONTEXT ( 'configuration controlled 3d designs of mechanical parts and assemblies' ) ;
#147 = CARTESIAN_POINT ( 'NONE',  ( 8.728703347107827472E-16, -3.061616997868381169E-17, 0.2499999999999998335 ) ) ;
#148 = DIRECTION ( 'NONE',  ( 0.0000000000000000000, 1.000000000000000000, 0.0000000000000000000 ) ) ;
#149 = FACE_OUTER_BOUND ( 'NONE', #243, .T. ) ;
#150 = DIRECTION ( 'NONE',  ( 0.0000000000000000000, 1.000000000000000000, 0.0000000000000000000 ) ) ;
#151 = PERSON_AND_ORGANIZATION ( #212, #135 ) ;
#152 = AXIS2_PLACEMENT_3D ( 'NONE', #216, #119, #150 ) ;
#153 = DATE_TIME_ROLE ( 'classification_date' ) ;
#154 = ORIENTED_EDGE ( 'NONE', *, *, #167, .F. ) ;
#155 = CC_DESIGN_PERSON_AND_ORGANIZATION_ASSIGNMENT ( #54, #37, ( #162 ) ) ;
#156 = EDGE_LOOP ( 'NONE', ( #56 ) ) ;
#157 = APPROVAL_DATE_TIME ( #106, #240 ) ;
#158 = CARTESIAN_POINT ( 'NONE',  ( 0.0000000000000000000, 0.0000000000000000000, 0.0000000000000000000 ) ) ;
#159 = APPROVAL_PERSON_ORGANIZATION ( #228, #57, #173 ) ;
#160 = DIRECTION ( 'NONE',  ( -4.275831445896958607E-31, -1.000000000000000000, -1.224646799147353207E-16 ) ) ;
#161 = AXIS2_PLACEMENT_3D ( 'NONE', #66, #221, #15 ) ;
#162 = PRODUCT_DEFINITION_FORMATION_WITH_SPECIFIED_SOURCE ( 'ANY', '', #109, .NOT_KNOWN. ) ;
#163 = FACE_BOUND ( 'NONE', #40, .T. ) ;
#164 = DIRECTION ( 'NONE',  ( -3.491481338843133355E-15, 1.224646799147353207E-16, -1.000000000000000000 ) ) ;
#165 = PERSON_AND_ORGANIZATION ( #212, #135 ) ;
#166 = CIRCLE ( 'NONE', #63, 1.250000000000005329 ) ;
#167 = EDGE_CURVE ( 'NONE', #187, #187, #35, .T. ) ;
#168 = EDGE_LOOP ( 'NONE', ( #108 ) ) ;
#169 = DIRECTION ( 'NONE',  ( -4.275831445896958607E-31, -1.000000000000000000, -1.224646799147353207E-16 ) ) ;
#170 = ORIENTED_EDGE ( 'NONE', *, *, #185, .T. ) ;
#171 =( NAMED_UNIT ( * ) PLANE_ANGLE_UNIT ( ) SI_UNIT ( $, .RADIAN. ) );
#172 = CARTESIAN_POINT ( 'NONE',  ( 6.982962677686266711E-14, 1.748999999999998778, 20.00000000000000000 ) ) ;
#173 = APPROVAL_ROLE ( '' ) ;
#174 = APPROVAL_DATE_TIME ( #19, #57 ) ;
#175 = CALENDAR_DATE ( 2021, 30, 11 ) ;
#176 = EDGE_LOOP ( 'NONE', ( #194 ) ) ;
#177 = EDGE_CURVE ( 'NONE', #224, #224, #26, .T. ) ;
#178 = CALENDAR_DATE ( 2021, 30, 11 ) ;
#179 = ORIENTED_EDGE ( 'NONE', *, *, #75, .T. ) ;
#180 = EDGE_LOOP ( 'NONE', ( #230 ) ) ;
#181 = CONICAL_SURFACE ( 'NONE', #100, 1.249999999999996003, 0.5235987755982935976 ) ;
#182 = ADVANCED_BREP_SHAPE_REPRESENTATION ( '969417', ( #49, #130, #229 ), #144 ) ;
#183 = DIRECTION ( 'NONE',  ( 4.275831445896958607E-31, 1.000000000000000000, 1.224646799147353207E-16 ) ) ;
#184 = AXIS2_PLACEMENT_3D ( 'NONE', #158, #233, #136 ) ;
#185 = EDGE_CURVE ( 'NONE', #226, #226, #166, .T. ) ;
#186 = DIRECTION ( 'NONE',  ( 0.0000000000000000000, 0.0000000000000000000, 1.000000000000000000 ) ) ;
#187 = VERTEX_POINT ( 'NONE', #89 ) ;
#188 = ORIENTED_EDGE ( 'NONE', *, *, #47, .T. ) ;
#189 = FACE_BOUND ( 'NONE', #86, .T. ) ;
#190 = COORDINATED_UNIVERSAL_TIME_OFFSET ( 1, 0, .AHEAD. ) ;
#191 = AXIS2_PLACEMENT_3D ( 'NONE', #24, #20, #4 ) ;
#192 = PRODUCT_DEFINITION ( 'UNKNOWN', '', #162, #145 ) ;
#193 = APPROVAL_DATE_TIME ( #18, #92 ) ;
#194 = ORIENTED_EDGE ( 'NONE', *, *, #23, .F. ) ;
#195 = DATE_AND_TIME ( #175, #36 ) ;
#196 = FACE_OUTER_BOUND ( 'NONE', #79, .T. ) ;
#197 = ORIENTED_EDGE ( 'NONE', *, *, #23, .T. ) ;
#198 = CARTESIAN_POINT ( 'NONE',  ( 7.284729089006764040E-14, -2.555139007119454409E-15, 20.86429335297689036 ) ) ;
#199 = CONICAL_SURFACE ( 'NONE', #126, 1.748999999999997668, 0.7853981633974426169 ) ;
#200 = CC_DESIGN_PERSON_AND_ORGANIZATION_ASSIGNMENT ( #132, #21, ( #162 ) ) ;
#201 = DIRECTION ( 'NONE',  ( 0.0000000000000000000, 1.000000000000000000, 0.0000000000000000000 ) ) ;
#202 = CARTESIAN_POINT ( 'NONE',  ( 1.946500846405046877E-13, 1.249999999999998446, 55.75000000000000000 ) ) ;
#203 = COORDINATED_UNIVERSAL_TIME_OFFSET ( 1, 0, .AHEAD. ) ;
#204 = SECURITY_CLASSIFICATION ( '', '', #112 ) ;
#205 = ORIENTED_EDGE ( 'NONE', *, *, #75, .F. ) ;
#206 = ADVANCED_FACE ( 'NONE', ( #124 ), #237, .F. ) ;
#207 = DIRECTION ( 'NONE',  ( 1.000000000000000000, 0.0000000000000000000, 0.0000000000000000000 ) ) ;
#208 = FACE_OUTER_BOUND ( 'NONE', #116, .T. ) ;
#209 = APPROVAL_PERSON_ORGANIZATION ( #165, #240, #50 ) ;
#210 = ADVANCED_FACE ( 'NONE', ( #105, #149 ), #199, .T. ) ;
#211 = APPROVAL_STATUS ( 'not_yet_approved' ) ;
#212 = PERSON ( 'UNSPECIFIED', 'UNSPECIFIED', 'UNSPECIFIED', ('UNSPECIFIED'), ('UNSPECIFIED'), ('UNSPECIFIED') ) ;
#213 = APPROVAL_ROLE ( '' ) ;
#214 = ORIENTED_EDGE ( 'NONE', *, *, #47, .F. ) ;
#215 = AXIS2_PLACEMENT_3D ( 'NONE', #82, #103, #183 ) ;
#216 = CARTESIAN_POINT ( 'NONE',  ( 1.955229549752154679E-13, -6.858022075225178552E-15, 56.00000000000000000 ) ) ;
#217 = DIRECTION ( 'NONE',  ( 0.0000000000000000000, 1.000000000000000000, 0.0000000000000000000 ) ) ;
#218 = CIRCLE ( 'NONE', #52, 1.749000000000001220 ) ;
#219 = CARTESIAN_POINT ( 'NONE',  ( 8.728703347107827472E-16, -3.061616997868381169E-17, 0.2499999999999998335 ) ) ;
#220 = AXIS2_PLACEMENT_3D ( 'NONE', #80, #38, #77 ) ;
#221 = DIRECTION ( 'NONE',  ( -3.491481338843133355E-15, 1.224646799147353207E-16, -1.000000000000000000 ) ) ;
#222 = VERTEX_POINT ( 'NONE', #51 ) ;
#223 = DIRECTION ( 'NONE',  ( -4.404642525756977428E-31, -1.000000000000000000, -1.239796652356210242E-16 ) ) ;
#224 = VERTEX_POINT ( 'NONE', #48 ) ;
#225 = APPROVAL_PERSON_ORGANIZATION ( #59, #92, #213 ) ;
#226 = VERTEX_POINT ( 'NONE', #202 ) ;
#227 = CARTESIAN_POINT ( 'NONE',  ( 6.982962677686266711E-14, -2.449293598294706513E-15, 20.00000000000000000 ) ) ;
#228 = PERSON_AND_ORGANIZATION ( #212, #135 ) ;
#229 = AXIS2_PLACEMENT_3D ( 'NONE', #128, #186, #207 ) ;
#230 = ORIENTED_EDGE ( 'NONE', *, *, #53, .T. ) ;
#231 = CC_DESIGN_DATE_AND_TIME_ASSIGNMENT ( #98, #93, ( #192 ) ) ;
#232 = PERSON_AND_ORGANIZATION_ROLE ( 'creator' ) ;
#233 = DIRECTION ( 'NONE',  ( -3.491481338843133355E-15, 1.224646799147353207E-16, -1.000000000000000000 ) ) ;
#234 = DIRECTION ( 'NONE',  ( 0.0000000000000000000, 1.000000000000000000, 0.0000000000000000000 ) ) ;
#235 = ADVANCED_FACE ( 'NONE', ( #143, #189 ), #87, .T. ) ;
#236 = FACE_OUTER_BOUND ( 'NONE', #16, .T. ) ;
#237 = PLANE ( 'NONE',  #95 ) ;
#238 = PERSON_AND_ORGANIZATION_ROLE ( 'design_owner' ) ;
#239 = UNCERTAINTY_MEASURE_WITH_UNIT (LENGTH_MEASURE( 1.000000000000000082E-05 ), #125, 'distance_accuracy_value', 'NONE');
#240 = APPROVAL ( #67, 'UNSPECIFIED' ) ;
#241 = VERTEX_POINT ( 'NONE', #127 ) ;
#242 = COORDINATED_UNIVERSAL_TIME_OFFSET ( 1, 0, .AHEAD. ) ;
#243 = EDGE_LOOP ( 'NONE', ( #113 ) ) ;
ENDSEC;
END-ISO-10303-21;
