ISO-10303-21;
HEADER;
FILE_DESCRIPTION (( 'STEP AP203' ),
    '1' );
FILE_NAME ('969416.step',
    '2021-11-30T13:08:25',
    ( '' ),
    ( '' ),
    'SwSTEP 2.0',
    'SolidWorks 2019',
    '' );
FILE_SCHEMA (( 'CONFIG_CONTROL_DESIGN' ));
ENDSEC;

DATA;
#1 = APPROVAL_STATUS ( 'not_yet_approved' ) ;
#2 = DIRECTION ( 'NONE',  ( 3.491481338843133355E-15, -1.224646799147353207E-16, 1.000000000000000000 ) ) ;
#3 = CARTESIAN_POINT ( 'NONE',  ( 3.785471652766323151E-31, 1.479000000000000759, 1.084202172485504434E-16 ) ) ;
#4 = CIRCLE ( 'NONE', #164, 1.479000000000000759 ) ;
#5 = AXIS2_PLACEMENT_3D ( 'NONE', #170, #50, #107 ) ;
#6 = ADVANCED_FACE ( 'NONE', ( #166 ), #142, .T. ) ;
#7 = COORDINATED_UNIVERSAL_TIME_OFFSET ( 1, 0, .AHEAD. ) ;
#8 = ORIENTED_EDGE ( 'NONE', *, *, #176, .F. ) ;
#9 = DESIGN_CONTEXT ( 'detailed design', #111, 'design' ) ;
#10 = EDGE_CURVE ( 'NONE', #97, #97, #227, .T. ) ;
#11 = ORIENTED_EDGE ( 'NONE', *, *, #135, .F. ) ;
#12 = DIRECTION ( 'NONE',  ( 0.0000000000000000000, 1.000000000000000000, 0.0000000000000000000 ) ) ;
#13 = CIRCLE ( 'NONE', #74, 1.728999999999998538 ) ;
#14 = DIRECTION ( 'NONE',  ( -3.491481338843133355E-15, 1.224646799147353207E-16, -1.000000000000000000 ) ) ;
#15 = APPROVAL_DATE_TIME ( #31, #139 ) ;
#16 = FACE_OUTER_BOUND ( 'NONE', #88, .T. ) ;
#17 = PERSON_AND_ORGANIZATION_ROLE ( 'creator' ) ;
#18 = DIRECTION ( 'NONE',  ( 4.275831445896958607E-31, 1.000000000000000000, 1.224646799147353454E-16 ) ) ;
#19 = CC_DESIGN_PERSON_AND_ORGANIZATION_ASSIGNMENT ( #69, #65, ( #195 ) ) ;
#20 = APPLICATION_CONTEXT ( 'configuration controlled 3d designs of mechanical parts and assemblies' ) ;
#21 = CARTESIAN_POINT ( 'NONE',  ( 8.728703347107827472E-16, -3.061616997868381169E-17, 0.2499999999999998335 ) ) ;
#22 =( GEOMETRIC_REPRESENTATION_CONTEXT ( 3 ) GLOBAL_UNCERTAINTY_ASSIGNED_CONTEXT ( ( #159 ) ) GLOBAL_UNIT_ASSIGNED_CONTEXT ( ( #225, #220, #153 ) ) REPRESENTATION_CONTEXT ( 'NONE', 'WORKASPACE' ) );
#23 = VERTEX_POINT ( 'NONE', #189 ) ;
#24 = APPROVAL_ROLE ( '' ) ;
#25 = EDGE_LOOP ( 'NONE', ( #91 ) ) ;
#26 = EDGE_CURVE ( 'NONE', #77, #77, #41, .T. ) ;
#27 = CIRCLE ( 'NONE', #213, 1.728999999999998538 ) ;
#28 = EDGE_LOOP ( 'NONE', ( #179 ) ) ;
#29 = CARTESIAN_POINT ( 'NONE',  ( 6.982962677686266711E-14, 1.296542332111171189E-32, 20.00000000000000000 ) ) ;
#30 = CARTESIAN_POINT ( 'NONE',  ( 1.946500846405046877E-13, -6.827405905246494765E-15, 55.75000000000000000 ) ) ;
#31 = DATE_AND_TIME ( #129, #126 ) ;
#32 = AXIS2_PLACEMENT_3D ( 'NONE', #76, #53, #131 ) ;
#33 = FACE_OUTER_BOUND ( 'NONE', #25, .T. ) ;
#34 = COORDINATED_UNIVERSAL_TIME_OFFSET ( 1, 0, .AHEAD. ) ;
#35 = CARTESIAN_POINT ( 'NONE',  ( 1.955229549752154679E-13, -6.858022075225178552E-15, 56.00000000000000000 ) ) ;
#36 = EDGE_CURVE ( 'NONE', #202, #202, #4, .T. ) ;
#37 = DIRECTION ( 'NONE',  ( 4.275831445896958607E-31, 1.000000000000000000, 1.224646799147353207E-16 ) ) ;
#38 = DIRECTION ( 'NONE',  ( 0.0000000000000000000, 1.000000000000000000, 0.0000000000000000000 ) ) ;
#39 = PERSON_AND_ORGANIZATION ( #130, #136 ) ;
#40 = MANIFOLD_SOLID_BREP ( 'Corps-Déplacer/Copier1[2]', #178 ) ;
#41 = CIRCLE ( 'NONE', #5, 1.000000000000005551 ) ;
#42 = APPROVAL_DATE_TIME ( #183, #210 ) ;
#43 = APPROVAL_PERSON_ORGANIZATION ( #39, #139, #218 ) ;
#44 = DATE_AND_TIME ( #212, #182 ) ;
#45 = CC_DESIGN_PERSON_AND_ORGANIZATION_ASSIGNMENT ( #211, #67, ( #49 ) ) ;
#46 = AXIS2_PLACEMENT_3D ( 'NONE', #205, #217, #38 ) ;
#47 = EDGE_LOOP ( 'NONE', ( #214 ) ) ;
#48 = EDGE_LOOP ( 'NONE', ( #121 ) ) ;
#49 = SECURITY_CLASSIFICATION ( '', '', #175 ) ;
#50 = DIRECTION ( 'NONE',  ( -3.491481338843133355E-15, 1.224646799147353207E-16, -1.000000000000000000 ) ) ;
#51 = DIRECTION ( 'NONE',  ( -3.491481338843133355E-15, 1.224646799147353207E-16, -1.000000000000000000 ) ) ;
#52 = COORDINATED_UNIVERSAL_TIME_OFFSET ( 1, 0, .AHEAD. ) ;
#53 = DIRECTION ( 'NONE',  ( 3.491481338843133355E-15, -1.224646799147353207E-16, 1.000000000000000000 ) ) ;
#54 = CARTESIAN_POINT ( 'NONE',  ( 6.982962677686266711E-14, 1.728999999999996096, 20.00000000000000000 ) ) ;
#55 = APPROVAL_PERSON_ORGANIZATION ( #209, #161, #24 ) ;
#56 = CARTESIAN_POINT ( 'NONE',  ( 7.272634242861652761E-14, -2.550896706164554627E-15, 20.82965233682550732 ) ) ;
#57 = CC_DESIGN_DATE_AND_TIME_ASSIGNMENT ( #116, #190, ( #66 ) ) ;
#58 = DIRECTION ( 'NONE',  ( -3.491481338843133355E-15, 1.224646799147353207E-16, -1.000000000000000000 ) ) ;
#59 = APPLICATION_PROTOCOL_DEFINITION ( 'international standard', 'config_control_design', 1994, #111 ) ;
#60 = FACE_OUTER_BOUND ( 'NONE', #103, .T. ) ;
#61 = CARTESIAN_POINT ( 'NONE',  ( 1.955229549752154679E-13, 0.9999999999999985567, 56.00000000000000000 ) ) ;
#62 = AXIS2_PLACEMENT_3D ( 'NONE', #237, #109, #168 ) ;
#63 = DATE_TIME_ROLE ( 'classification_date' ) ;
#64 = PRODUCT_DEFINITION_SHAPE ( 'NONE', 'NONE',  #66 ) ;
#65 = PERSON_AND_ORGANIZATION_ROLE ( 'creator' ) ;
#66 = PRODUCT_DEFINITION ( 'UNKNOWN', '', #195, #9 ) ;
#67 = PERSON_AND_ORGANIZATION_ROLE ( 'classification_officer' ) ;
#68 = ORIENTED_EDGE ( 'NONE', *, *, #102, .F. ) ;
#69 = PERSON_AND_ORGANIZATION ( #130, #136 ) ;
#70 = ORIENTED_EDGE ( 'NONE', *, *, #10, .F. ) ;
#71 = EDGE_LOOP ( 'NONE', ( #11 ) ) ;
#72 = CC_DESIGN_APPROVAL ( #139, ( #195 ) ) ;
#73 = CARTESIAN_POINT ( 'NONE',  ( 8.728703347107827472E-16, -3.061616997868381169E-17, 0.2499999999999998335 ) ) ;
#74 = AXIS2_PLACEMENT_3D ( 'NONE', #224, #127, #12 ) ;
#75 = ORIENTED_EDGE ( 'NONE', *, *, #26, .F. ) ;
#76 = CARTESIAN_POINT ( 'NONE',  ( 6.982962677686266711E-14, 1.296542332111171189E-32, 20.00000000000000000 ) ) ;
#77 = VERTEX_POINT ( 'NONE', #61 ) ;
#78 = PRODUCT_RELATED_PRODUCT_CATEGORY ( 'detail', '', ( #229 ) ) ;
#79 = FACE_OUTER_BOUND ( 'NONE', #71, .T. ) ;
#80 = DIRECTION ( 'NONE',  ( -4.455592699565618080E-31, -1.000000000000000000, -1.254137851342401245E-16 ) ) ;
#81 = APPROVAL_ROLE ( '' ) ;
#82 = PLANE ( 'NONE',  #174 ) ;
#83 = COORDINATED_UNIVERSAL_TIME_OFFSET ( 1, 0, .AHEAD. ) ;
#84 = AXIS2_PLACEMENT_3D ( 'NONE', #56, #51, #144 ) ;
#85 = DATE_AND_TIME ( #156, #110 ) ;
#86 = CC_DESIGN_PERSON_AND_ORGANIZATION_ASSIGNMENT ( #165, #17, ( #66 ) ) ;
#87 = SHAPE_DEFINITION_REPRESENTATION ( #64, #192 ) ;
#88 = EDGE_LOOP ( 'NONE', ( #8 ) ) ;
#89 = EDGE_LOOP ( 'NONE', ( #125 ) ) ;
#90 = CC_DESIGN_PERSON_AND_ORGANIZATION_ASSIGNMENT ( #158, #177, ( #195 ) ) ;
#91 = ORIENTED_EDGE ( 'NONE', *, *, #135, .T. ) ;
#92 = DIRECTION ( 'NONE',  ( -3.491481338843133355E-15, 1.224646799147353207E-16, -1.000000000000000000 ) ) ;
#93 = LOCAL_TIME ( 14, 8, 25.00000000000000000, #151 ) ;
#94 = FACE_OUTER_BOUND ( 'NONE', #48, .T. ) ;
#95 = VERTEX_POINT ( 'NONE', #99 ) ;
#96 = DIRECTION ( 'NONE',  ( -3.491481338843133355E-15, 1.224646799147353207E-16, -1.000000000000000000 ) ) ;
#97 = VERTEX_POINT ( 'NONE', #198 ) ;
#98 = DIRECTION ( 'NONE',  ( -3.491481338843133355E-15, 1.224646799147353207E-16, -1.000000000000000000 ) ) ;
#99 = CARTESIAN_POINT ( 'NONE',  ( 1.946500846405046877E-13, 1.249999999999998446, 55.75000000000000000 ) ) ;
#100 = PLANE ( 'NONE',  #32 ) ;
#101 = CC_DESIGN_SECURITY_CLASSIFICATION ( #49, ( #195 ) ) ;
#102 = EDGE_CURVE ( 'NONE', #223, #223, #13, .T. ) ;
#103 = EDGE_LOOP ( 'NONE', ( #75 ) ) ;
#104 = CONICAL_SURFACE ( 'NONE', #171, 1.000000000000005551, 0.7853981633974473908 ) ;
#105 = CC_DESIGN_PERSON_AND_ORGANIZATION_ASSIGNMENT ( #204, #132, ( #229 ) ) ;
#106 = EDGE_LOOP ( 'NONE', ( #68 ) ) ;
#107 = DIRECTION ( 'NONE',  ( 0.0000000000000000000, 1.000000000000000000, 0.0000000000000000000 ) ) ;
#108 = DIRECTION ( 'NONE',  ( 3.491481338843133355E-15, -1.224646799147353207E-16, 1.000000000000000000 ) ) ;
#109 = DIRECTION ( 'NONE',  ( 0.0000000000000000000, 0.0000000000000000000, 1.000000000000000000 ) ) ;
#110 = LOCAL_TIME ( 14, 8, 25.00000000000000000, #7 ) ;
#111 = APPLICATION_CONTEXT ( 'configuration controlled 3d designs of mechanical parts and assemblies' ) ;
#112 = ORIENTED_EDGE ( 'NONE', *, *, #36, .T. ) ;
#113 = CALENDAR_DATE ( 2021, 30, 11 ) ;
#114 = FACE_OUTER_BOUND ( 'NONE', #196, .T. ) ;
#115 = APPROVAL_PERSON_ORGANIZATION ( #208, #210, #81 ) ;
#116 = DATE_AND_TIME ( #206, #93 ) ;
#117 = EDGE_CURVE ( 'NONE', #187, #187, #27, .T. ) ;
#118 = CONICAL_SURFACE ( 'NONE', #235, 1.728999999999997650, 0.7853981633974425058 ) ;
#119 = APPROVAL_STATUS ( 'not_yet_approved' ) ;
#120 = MANIFOLD_SOLID_BREP ( 'Corps-Déplacer/Copier1[1]', #232 ) ;
#121 = ORIENTED_EDGE ( 'NONE', *, *, #102, .T. ) ;
#122 = CIRCLE ( 'NONE', #243, 1.728999999999997650 ) ;
#123 = EDGE_LOOP ( 'NONE', ( #231 ) ) ;
#124 = ADVANCED_FACE ( 'NONE', ( #79, #146 ), #104, .T. ) ;
#125 = ORIENTED_EDGE ( 'NONE', *, *, #117, .T. ) ;
#126 = LOCAL_TIME ( 14, 8, 25.00000000000000000, #52 ) ;
#127 = DIRECTION ( 'NONE',  ( -3.491481338843133355E-15, 1.224646799147353207E-16, -1.000000000000000000 ) ) ;
#128 = CARTESIAN_POINT ( 'NONE',  ( 0.0000000000000000000, 0.0000000000000000000, 0.0000000000000000000 ) ) ;
#129 = CALENDAR_DATE ( 2021, 30, 11 ) ;
#130 = PERSON ( 'UNSPECIFIED', 'UNSPECIFIED', 'UNSPECIFIED', ('UNSPECIFIED'), ('UNSPECIFIED'), ('UNSPECIFIED') ) ;
#131 = DIRECTION ( 'NONE',  ( -4.275831445896958607E-31, -1.000000000000000000, -1.224646799147353207E-16 ) ) ;
#132 = PERSON_AND_ORGANIZATION_ROLE ( 'design_owner' ) ;
#133 = FACE_BOUND ( 'NONE', #28, .T. ) ;
#134 = FACE_OUTER_BOUND ( 'NONE', #123, .T. ) ;
#135 = EDGE_CURVE ( 'NONE', #95, #95, #222, .T. ) ;
#136 = ORGANIZATION ( 'UNSPECIFIED', 'UNSPECIFIED', '' ) ;
#137 = AXIS2_PLACEMENT_3D ( 'NONE', #152, #2, #226 ) ;
#138 = ORIENTED_EDGE ( 'NONE', *, *, #10, .T. ) ;
#139 = APPROVAL ( #143, 'UNSPECIFIED' ) ;
#140 = CARTESIAN_POINT ( 'NONE',  ( -2.538483055715281850E-31, 8.903799983939090588E-33, -7.270504434534318792E-17 ) ) ;
#141 = AXIS2_PLACEMENT_3D ( 'NONE', #128, #188, #219 ) ;
#142 = PLANE ( 'NONE',  #157 ) ;
#143 = APPROVAL_STATUS ( 'not_yet_approved' ) ;
#144 = DIRECTION ( 'NONE',  ( 0.0000000000000000000, 1.000000000000000000, 0.0000000000000000000 ) ) ;
#145 = CARTESIAN_POINT ( 'NONE',  ( 6.982962677686266711E-14, 1.728999999999996096, 20.00000000000000000 ) ) ;
#146 = FACE_BOUND ( 'NONE', #47, .T. ) ;
#147 = AXIS2_PLACEMENT_3D ( 'NONE', #167, #92, #18 ) ;
#148 = APPLICATION_PROTOCOL_DEFINITION ( 'international standard', 'config_control_design', 1994, #20 ) ;
#149 = DIRECTION ( 'NONE',  ( -3.491481338843133355E-15, 1.224646799147353207E-16, -1.000000000000000000 ) ) ;
#150 = ADVANCED_FACE ( 'NONE', ( #16, #94 ), #240, .T. ) ;
#151 = COORDINATED_UNIVERSAL_TIME_OFFSET ( 1, 0, .AHEAD. ) ;
#152 = CARTESIAN_POINT ( 'NONE',  ( -1.269241527857640925E-31, 4.451899991969545294E-33, -3.635252217267159396E-17 ) ) ;
#153 =( NAMED_UNIT ( * ) SI_UNIT ( $, .STERADIAN. ) SOLID_ANGLE_UNIT ( ) );
#154 = CONICAL_SURFACE ( 'NONE', #46, 1.249999999999996003, 0.5235987755982927094 ) ;
#155 = APPROVAL_DATE_TIME ( #85, #161 ) ;
#156 = CALENDAR_DATE ( 2021, 30, 11 ) ;
#157 = AXIS2_PLACEMENT_3D ( 'NONE', #29, #242, #186 ) ;
#158 = PERSON_AND_ORGANIZATION ( #130, #136 ) ;
#159 = UNCERTAINTY_MEASURE_WITH_UNIT (LENGTH_MEASURE( 1.000000000000000082E-05 ), #225, 'distance_accuracy_value', 'NONE');
#160 = ORIENTED_EDGE ( 'NONE', *, *, #176, .T. ) ;
#161 = APPROVAL ( #119, 'UNSPECIFIED' ) ;
#162 = EDGE_LOOP ( 'NONE', ( #160 ) ) ;
#163 = DIRECTION ( 'NONE',  ( 4.455592699565618080E-31, 1.000000000000000000, 1.254137851342401245E-16 ) ) ;
#164 = AXIS2_PLACEMENT_3D ( 'NONE', #140, #14, #180 ) ;
#165 = PERSON_AND_ORGANIZATION ( #130, #136 ) ;
#166 = FACE_OUTER_BOUND ( 'NONE', #106, .T. ) ;
#167 = CARTESIAN_POINT ( 'NONE',  ( 0.0000000000000000000, 0.0000000000000000000, 0.0000000000000000000 ) ) ;
#168 = DIRECTION ( 'NONE',  ( 1.000000000000000000, 0.0000000000000000000, 0.0000000000000000000 ) ) ;
#169 = ADVANCED_FACE ( 'NONE', ( #133, #203 ), #118, .T. ) ;
#170 = CARTESIAN_POINT ( 'NONE',  ( 1.955229549752154679E-13, -6.858022075225178552E-15, 56.00000000000000000 ) ) ;
#171 = AXIS2_PLACEMENT_3D ( 'NONE', #35, #96, #221 ) ;
#172 = PLANE ( 'NONE',  #137 ) ;
#173 = MECHANICAL_CONTEXT ( 'NONE', #20, 'mechanical' ) ;
#174 = AXIS2_PLACEMENT_3D ( 'NONE', #239, #241, #37 ) ;
#175 = SECURITY_CLASSIFICATION_LEVEL ( 'unclassified' ) ;
#176 = EDGE_CURVE ( 'NONE', #23, #23, #122, .T. ) ;
#177 = PERSON_AND_ORGANIZATION_ROLE ( 'design_supplier' ) ;
#178 = CLOSED_SHELL ( 'NONE', ( #228, #169, #150, #6 ) ) ;
#179 = ORIENTED_EDGE ( 'NONE', *, *, #36, .F. ) ;
#180 = DIRECTION ( 'NONE',  ( 4.275831445896958607E-31, 1.000000000000000000, 1.224646799147353207E-16 ) ) ;
#181 = DIRECTION ( 'NONE',  ( 0.0000000000000000000, 1.000000000000000000, 0.0000000000000000000 ) ) ;
#182 = LOCAL_TIME ( 14, 8, 25.00000000000000000, #83 ) ;
#183 = DATE_AND_TIME ( #113, #230 ) ;
#184 = FACE_OUTER_BOUND ( 'NONE', #194, .T. ) ;
#185 = ADVANCED_FACE ( 'NONE', ( #134, #238 ), #154, .T. ) ;
#186 = DIRECTION ( 'NONE',  ( -4.275831445896958607E-31, -1.000000000000000000, -1.224646799147353207E-16 ) ) ;
#187 = VERTEX_POINT ( 'NONE', #54 ) ;
#188 = DIRECTION ( 'NONE',  ( -3.491481338843133355E-15, 1.224646799147353207E-16, -1.000000000000000000 ) ) ;
#189 = CARTESIAN_POINT ( 'NONE',  ( 8.728703347107835360E-16, 1.728999999999997650, 0.2500000000000000555 ) ) ;
#190 = DATE_TIME_ROLE ( 'creation_date' ) ;
#191 = ADVANCED_FACE ( 'NONE', ( #114, #33 ), #236, .T. ) ;
#192 = ADVANCED_BREP_SHAPE_REPRESENTATION ( '969416', ( #120, #40, #62 ), #22 ) ;
#193 = CC_DESIGN_APPROVAL ( #210, ( #66 ) ) ;
#194 = EDGE_LOOP ( 'NONE', ( #112 ) ) ;
#195 = PRODUCT_DEFINITION_FORMATION_WITH_SPECIFIED_SOURCE ( 'ANY', '', #229, .NOT_KNOWN. ) ;
#196 = EDGE_LOOP ( 'NONE', ( #70 ) ) ;
#197 = FACE_OUTER_BOUND ( 'NONE', #89, .T. ) ;
#198 = CARTESIAN_POINT ( 'NONE',  ( 7.272634242861652761E-14, 1.249999999999993339, 20.82965233682550732 ) ) ;
#199 = DIRECTION ( 'NONE',  ( 0.0000000000000000000, 1.000000000000000000, 0.0000000000000000000 ) ) ;
#200 = CC_DESIGN_DATE_AND_TIME_ASSIGNMENT ( #44, #63, ( #49 ) ) ;
#201 = CC_DESIGN_APPROVAL ( #161, ( #49 ) ) ;
#202 = VERTEX_POINT ( 'NONE', #3 ) ;
#203 = FACE_OUTER_BOUND ( 'NONE', #162, .T. ) ;
#204 = PERSON_AND_ORGANIZATION ( #130, #136 ) ;
#205 = CARTESIAN_POINT ( 'NONE',  ( 7.272634242861652761E-14, -2.550896706164554627E-15, 20.82965233682550732 ) ) ;
#206 = CALENDAR_DATE ( 2021, 30, 11 ) ;
#207 = AXIS2_PLACEMENT_3D ( 'NONE', #30, #58, #181 ) ;
#208 = PERSON_AND_ORGANIZATION ( #130, #136 ) ;
#209 = PERSON_AND_ORGANIZATION ( #130, #136 ) ;
#210 = APPROVAL ( #1, 'UNSPECIFIED' ) ;
#211 = PERSON_AND_ORGANIZATION ( #130, #136 ) ;
#212 = CALENDAR_DATE ( 2021, 30, 11 ) ;
#213 = AXIS2_PLACEMENT_3D ( 'NONE', #234, #98, #199 ) ;
#214 = ORIENTED_EDGE ( 'NONE', *, *, #26, .T. ) ;
#215 = ADVANCED_FACE ( 'NONE', ( #197 ), #100, .F. ) ;
#216 = EDGE_LOOP ( 'NONE', ( #138 ) ) ;
#217 = DIRECTION ( 'NONE',  ( -3.491481338843133355E-15, 1.224646799147353207E-16, -1.000000000000000000 ) ) ;
#218 = APPROVAL_ROLE ( '' ) ;
#219 = DIRECTION ( 'NONE',  ( 4.275831445896957731E-31, 1.000000000000000000, 1.224646799147353454E-16 ) ) ;
#220 =( NAMED_UNIT ( * ) PLANE_ANGLE_UNIT ( ) SI_UNIT ( $, .RADIAN. ) );
#221 = DIRECTION ( 'NONE',  ( 0.0000000000000000000, 1.000000000000000000, 0.0000000000000000000 ) ) ;
#222 = CIRCLE ( 'NONE', #207, 1.250000000000005329 ) ;
#223 = VERTEX_POINT ( 'NONE', #145 ) ;
#224 = CARTESIAN_POINT ( 'NONE',  ( 6.982962677686266711E-14, -2.449293598294706513E-15, 20.00000000000000000 ) ) ;
#225 =( LENGTH_UNIT ( ) NAMED_UNIT ( * ) SI_UNIT ( .MILLI., .METRE. ) );
#226 = DIRECTION ( 'NONE',  ( -4.275831445896958607E-31, -1.000000000000000000, -1.224646799147353207E-16 ) ) ;
#227 = CIRCLE ( 'NONE', #84, 1.249999999999996003 ) ;
#228 = ADVANCED_FACE ( 'NONE', ( #184 ), #172, .F. ) ;
#229 = PRODUCT ( '969416', '969416', '', ( #173 ) ) ;
#230 = LOCAL_TIME ( 14, 8, 25.00000000000000000, #34 ) ;
#231 = ORIENTED_EDGE ( 'NONE', *, *, #117, .F. ) ;
#232 = CLOSED_SHELL ( 'NONE', ( #215, #185, #191, #124, #233 ) ) ;
#233 = ADVANCED_FACE ( 'NONE', ( #60 ), #82, .F. ) ;
#234 = CARTESIAN_POINT ( 'NONE',  ( 6.982962677686266711E-14, -2.449293598294706513E-15, 20.00000000000000000 ) ) ;
#235 = AXIS2_PLACEMENT_3D ( 'NONE', #21, #108, #80 ) ;
#236 = CYLINDRICAL_SURFACE ( 'NONE', #141, 1.250000000000000666 ) ;
#237 = CARTESIAN_POINT ( 'NONE',  ( 0.0000000000000000000, 0.0000000000000000000, 0.0000000000000000000 ) ) ;
#238 = FACE_BOUND ( 'NONE', #216, .T. ) ;
#239 = CARTESIAN_POINT ( 'NONE',  ( 1.955229549752154679E-13, 7.498798913309223722E-33, 56.00000000000000000 ) ) ;
#240 = CYLINDRICAL_SURFACE ( 'NONE', #147, 1.728999999999998094 ) ;
#241 = DIRECTION ( 'NONE',  ( -3.491481338843133355E-15, 1.224646799147353207E-16, -1.000000000000000000 ) ) ;
#242 = DIRECTION ( 'NONE',  ( 3.491481338843133355E-15, -1.224646799147353207E-16, 1.000000000000000000 ) ) ;
#243 = AXIS2_PLACEMENT_3D ( 'NONE', #73, #149, #163 ) ;
ENDSEC;
END-ISO-10303-21;
