ISO-10303-21;
HEADER;
FILE_DESCRIPTION (( 'STEP AP203' ),
    '1' );
FILE_NAME ('969415.step',
    '2021-11-30T13:08:25',
    ( '' ),
    ( '' ),
    'SwSTEP 2.0',
    'SolidWorks 2019',
    '' );
FILE_SCHEMA (( 'CONFIG_CONTROL_DESIGN' ));
ENDSEC;

DATA;
#1 = CIRCLE ( 'NONE', #193, 1.708999999999997632 ) ;
#2 = DATE_AND_TIME ( #206, #31 ) ;
#3 = ORIENTED_EDGE ( 'NONE', *, *, #20, .T. ) ;
#4 = AXIS2_PLACEMENT_3D ( 'NONE', #181, #75, #241 ) ;
#5 = EDGE_LOOP ( 'NONE', ( #161 ) ) ;
#6 = FACE_OUTER_BOUND ( 'NONE', #43, .T. ) ;
#7 = DIRECTION ( 'NONE',  ( 4.507735387682243428E-31, 1.000000000000000000, 1.268814713265659364E-16 ) ) ;
#8 = CARTESIAN_POINT ( 'NONE',  ( 6.982962677686266711E-14, -2.449293598294706513E-15, 20.00000000000000000 ) ) ;
#9 = DIRECTION ( 'NONE',  ( -3.491481338843133355E-15, 1.224646799147353207E-16, -1.000000000000000000 ) ) ;
#10 = VERTEX_POINT ( 'NONE', #96 ) ;
#11 = COORDINATED_UNIVERSAL_TIME_OFFSET ( 1, 0, .AHEAD. ) ;
#12 = VERTEX_POINT ( 'NONE', #94 ) ;
#13 = ADVANCED_FACE ( 'NONE', ( #144, #177 ), #199, .T. ) ;
#14 = CARTESIAN_POINT ( 'NONE',  ( 0.0000000000000000000, 0.0000000000000000000, 0.0000000000000000000 ) ) ;
#15 = ORGANIZATION ( 'UNSPECIFIED', 'UNSPECIFIED', '' ) ;
#16 = DIRECTION ( 'NONE',  ( 0.0000000000000000000, 0.0000000000000000000, 1.000000000000000000 ) ) ;
#17 = COORDINATED_UNIVERSAL_TIME_OFFSET ( 1, 0, .AHEAD. ) ;
#18 = PERSON_AND_ORGANIZATION_ROLE ( 'creator' ) ;
#19 = ORIENTED_EDGE ( 'NONE', *, *, #135, .T. ) ;
#20 = EDGE_CURVE ( 'NONE', #10, #10, #82, .T. ) ;
#21 = AXIS2_PLACEMENT_3D ( 'NONE', #236, #140, #209 ) ;
#22 = EDGE_CURVE ( 'NONE', #91, #91, #44, .T. ) ;
#23 = AXIS2_PLACEMENT_3D ( 'NONE', #164, #141, #145 ) ;
#24 = AXIS2_PLACEMENT_3D ( 'NONE', #14, #16, #97 ) ;
#25 = PLANE ( 'NONE',  #198 ) ;
#26 = DIRECTION ( 'NONE',  ( -3.491481338843133355E-15, 1.224646799147353207E-16, -1.000000000000000000 ) ) ;
#27 = DIRECTION ( 'NONE',  ( -3.491481338843133355E-15, 1.224646799147353207E-16, -1.000000000000000000 ) ) ;
#28 = ADVANCED_FACE ( 'NONE', ( #120 ), #72, .T. ) ;
#29 = AXIS2_PLACEMENT_3D ( 'NONE', #86, #163, #175 ) ;
#30 = CARTESIAN_POINT ( 'NONE',  ( 6.982962677686266711E-14, 1.281544734284553325E-32, 20.00000000000000000 ) ) ;
#31 = LOCAL_TIME ( 14, 8, 25.00000000000000000, #17 ) ;
#32 = CARTESIAN_POINT ( 'NONE',  ( 6.982962677686266711E-14, -2.449293598294706513E-15, 20.00000000000000000 ) ) ;
#33 = ADVANCED_FACE ( 'NONE', ( #48, #194 ), #65, .T. ) ;
#34 = APPROVAL_ROLE ( '' ) ;
#35 = CARTESIAN_POINT ( 'NONE',  ( 6.982962677686266711E-14, 1.708999999999996966, 20.00000000000000000 ) ) ;
#36 =( NAMED_UNIT ( * ) SI_UNIT ( $, .STERADIAN. ) SOLID_ANGLE_UNIT ( ) );
#37 = FACE_OUTER_BOUND ( 'NONE', #64, .T. ) ;
#38 = DATE_AND_TIME ( #227, #127 ) ;
#39 = PRODUCT_DEFINITION_SHAPE ( 'NONE', 'NONE',  #154 ) ;
#40 = COORDINATED_UNIVERSAL_TIME_OFFSET ( 1, 0, .AHEAD. ) ;
#41 = ADVANCED_FACE ( 'NONE', ( #197, #235 ), #237, .T. ) ;
#42 = APPROVAL_STATUS ( 'not_yet_approved' ) ;
#43 = EDGE_LOOP ( 'NONE', ( #208 ) ) ;
#44 = CIRCLE ( 'NONE', #113, 1.250000000000005329 ) ;
#45 = ORIENTED_EDGE ( 'NONE', *, *, #217, .T. ) ;
#46 = CC_DESIGN_PERSON_AND_ORGANIZATION_ASSIGNMENT ( #79, #169, ( #69 ) ) ;
#47 = FACE_OUTER_BOUND ( 'NONE', #189, .T. ) ;
#48 = FACE_OUTER_BOUND ( 'NONE', #100, .T. ) ;
#49 = CARTESIAN_POINT ( 'NONE',  ( 6.982962677686266711E-14, 1.281544734284553325E-32, 20.00000000000000000 ) ) ;
#50 = FACE_OUTER_BOUND ( 'NONE', #187, .T. ) ;
#51 = CC_DESIGN_APPROVAL ( #157, ( #154 ) ) ;
#52 = VERTEX_POINT ( 'NONE', #166 ) ;
#53 = UNCERTAINTY_MEASURE_WITH_UNIT (LENGTH_MEASURE( 1.000000000000000082E-05 ), #128, 'distance_accuracy_value', 'NONE');
#54 = VERTEX_POINT ( 'NONE', #56 ) ;
#55 = PRODUCT ( '969415', '969415', '', ( #112 ) ) ;
#56 = CARTESIAN_POINT ( 'NONE',  ( 0.0000000000000000000, 1.459000000000000297, 0.0000000000000000000 ) ) ;
#57 = AXIS2_PLACEMENT_3D ( 'NONE', #8, #27, #107 ) ;
#58 = PLANE ( 'NONE',  #142 ) ;
#59 = CALENDAR_DATE ( 2021, 30, 11 ) ;
#60 = CIRCLE ( 'NONE', #162, 1.249999999999996003 ) ;
#61 = APPROVAL_DATE_TIME ( #153, #223 ) ;
#62 = DATE_TIME_ROLE ( 'classification_date' ) ;
#63 = ORIENTED_EDGE ( 'NONE', *, *, #184, .T. ) ;
#64 = EDGE_LOOP ( 'NONE', ( #81 ) ) ;
#65 = CONICAL_SURFACE ( 'NONE', #146, 1.000000000000005551, 0.7853981633974473908 ) ;
#66 = CONICAL_SURFACE ( 'NONE', #92, 1.708999999999997632, 0.7853981633974430610 ) ;
#67 = ORIENTED_EDGE ( 'NONE', *, *, #85, .T. ) ;
#68 = DIRECTION ( 'NONE',  ( -3.491481338843133355E-15, 1.224646799147353207E-16, -1.000000000000000000 ) ) ;
#69 = PRODUCT_DEFINITION_FORMATION_WITH_SPECIFIED_SOURCE ( 'ANY', '', #55, .NOT_KNOWN. ) ;
#70 = FACE_OUTER_BOUND ( 'NONE', #190, .T. ) ;
#71 = DIRECTION ( 'NONE',  ( 0.0000000000000000000, 1.000000000000000000, 0.0000000000000000000 ) ) ;
#72 = PLANE ( 'NONE',  #137 ) ;
#73 = CARTESIAN_POINT ( 'NONE',  ( 1.946500846405046877E-13, 1.249999999999998446, 55.75000000000000000 ) ) ;
#74 = PRODUCT_RELATED_PRODUCT_CATEGORY ( 'detail', '', ( #55 ) ) ;
#75 = DIRECTION ( 'NONE',  ( 3.491481338843133355E-15, -1.224646799147353207E-16, 1.000000000000000000 ) ) ;
#76 = DIRECTION ( 'NONE',  ( 4.275831445896958607E-31, 1.000000000000000000, 1.224646799147353207E-16 ) ) ;
#77 = CLOSED_SHELL ( 'NONE', ( #233, #111, #13, #28 ) ) ;
#78 = APPLICATION_CONTEXT ( 'configuration controlled 3d designs of mechanical parts and assemblies' ) ;
#79 = PERSON_AND_ORGANIZATION ( #152, #15 ) ;
#80 = PERSON_AND_ORGANIZATION ( #152, #15 ) ;
#81 = ORIENTED_EDGE ( 'NONE', *, *, #135, .F. ) ;
#82 = CIRCLE ( 'NONE', #57, 1.708999999999999408 ) ;
#83 = EDGE_LOOP ( 'NONE', ( #45 ) ) ;
#84 = CYLINDRICAL_SURFACE ( 'NONE', #238, 1.250000000000000666 ) ;
#85 = EDGE_CURVE ( 'NONE', #183, #183, #102, .T. ) ;
#86 = CARTESIAN_POINT ( 'NONE',  ( 0.0000000000000000000, 0.0000000000000000000, 0.0000000000000000000 ) ) ;
#87 = ORIENTED_EDGE ( 'NONE', *, *, #20, .F. ) ;
#88 = DIRECTION ( 'NONE',  ( -3.491481338843133355E-15, 1.224646799147353207E-16, -1.000000000000000000 ) ) ;
#89 = DIRECTION ( 'NONE',  ( -3.491481338843133355E-15, 1.224646799147353207E-16, -1.000000000000000000 ) ) ;
#90 = CC_DESIGN_PERSON_AND_ORGANIZATION_ASSIGNMENT ( #132, #225, ( #224 ) ) ;
#91 = VERTEX_POINT ( 'NONE', #73 ) ;
#92 = AXIS2_PLACEMENT_3D ( 'NONE', #123, #191, #196 ) ;
#93 = CALENDAR_DATE ( 2021, 30, 11 ) ;
#94 = CARTESIAN_POINT ( 'NONE',  ( 8.728703347107835360E-16, 1.708999999999997632, 0.2500000000000000555 ) ) ;
#95 = ADVANCED_BREP_SHAPE_REPRESENTATION ( '969415', ( #125, #124, #24 ), #138 ) ;
#96 = CARTESIAN_POINT ( 'NONE',  ( 6.982962677686266711E-14, 1.708999999999996966, 20.00000000000000000 ) ) ;
#97 = DIRECTION ( 'NONE',  ( 1.000000000000000000, 0.0000000000000000000, 0.0000000000000000000 ) ) ;
#98 = APPROVAL_DATE_TIME ( #2, #139 ) ;
#99 = SECURITY_CLASSIFICATION_LEVEL ( 'unclassified' ) ;
#100 = EDGE_LOOP ( 'NONE', ( #136 ) ) ;
#101 = CC_DESIGN_APPROVAL ( #223, ( #224 ) ) ;
#102 = CIRCLE ( 'NONE', #192, 1.708999999999999408 ) ;
#103 = DIRECTION ( 'NONE',  ( -4.275831445896958607E-31, -1.000000000000000000, -1.224646799147353207E-16 ) ) ;
#104 = DIRECTION ( 'NONE',  ( 4.275831445896957731E-31, 1.000000000000000000, 1.224646799147353454E-16 ) ) ;
#105 = EDGE_LOOP ( 'NONE', ( #87 ) ) ;
#106 = DIRECTION ( 'NONE',  ( 0.0000000000000000000, 1.000000000000000000, 0.0000000000000000000 ) ) ;
#107 = DIRECTION ( 'NONE',  ( 0.0000000000000000000, 1.000000000000000000, 0.0000000000000000000 ) ) ;
#108 = DIRECTION ( 'NONE',  ( -3.491481338843133355E-15, 1.224646799147353207E-16, -1.000000000000000000 ) ) ;
#109 = CC_DESIGN_SECURITY_CLASSIFICATION ( #224, ( #69 ) ) ;
#110 = CARTESIAN_POINT ( 'NONE',  ( 1.955229549752154679E-13, 7.498798913309223722E-33, 56.00000000000000000 ) ) ;
#111 = ADVANCED_FACE ( 'NONE', ( #230, #50 ), #66, .T. ) ;
#112 = MECHANICAL_CONTEXT ( 'NONE', #232, 'mechanical' ) ;
#113 = AXIS2_PLACEMENT_3D ( 'NONE', #234, #68, #71 ) ;
#114 = AXIS2_PLACEMENT_3D ( 'NONE', #176, #108, #130 ) ;
#115 = DATE_TIME_ROLE ( 'creation_date' ) ;
#116 = PERSON_AND_ORGANIZATION ( #152, #15 ) ;
#117 = EDGE_LOOP ( 'NONE', ( #226 ) ) ;
#118 = ADVANCED_FACE ( 'NONE', ( #70 ), #25, .F. ) ;
#119 = EDGE_LOOP ( 'NONE', ( #63 ) ) ;
#120 = FACE_OUTER_BOUND ( 'NONE', #229, .T. ) ;
#121 = LOCAL_TIME ( 14, 8, 25.00000000000000000, #170 ) ;
#122 = DIRECTION ( 'NONE',  ( -3.491481338843133355E-15, 1.224646799147353207E-16, -1.000000000000000000 ) ) ;
#123 = CARTESIAN_POINT ( 'NONE',  ( 8.728703347107827472E-16, -3.061616997868381169E-17, 0.2499999999999998335 ) ) ;
#124 = MANIFOLD_SOLID_BREP ( 'Corps-Déplacer/Copier1[2]', #77 ) ;
#125 = MANIFOLD_SOLID_BREP ( 'Corps-Déplacer/Copier1[1]', #185 ) ;
#126 = CARTESIAN_POINT ( 'NONE',  ( 1.955229549752154679E-13, -6.858022075225178552E-15, 56.00000000000000000 ) ) ;
#127 = LOCAL_TIME ( 14, 8, 25.00000000000000000, #40 ) ;
#128 =( LENGTH_UNIT ( ) NAMED_UNIT ( * ) SI_UNIT ( .MILLI., .METRE. ) );
#129 = EDGE_CURVE ( 'NONE', #12, #12, #1, .T. ) ;
#130 = DIRECTION ( 'NONE',  ( 4.275831445896957731E-31, 1.000000000000000000, 1.224646799147353207E-16 ) ) ;
#131 = DIRECTION ( 'NONE',  ( -3.491481338843133355E-15, 1.224646799147353207E-16, -1.000000000000000000 ) ) ;
#132 = PERSON_AND_ORGANIZATION ( #152, #15 ) ;
#133 = APPROVAL_ROLE ( '' ) ;
#134 = PERSON_AND_ORGANIZATION ( #152, #15 ) ;
#135 = EDGE_CURVE ( 'NONE', #239, #239, #219, .T. ) ;
#136 = ORIENTED_EDGE ( 'NONE', *, *, #22, .F. ) ;
#137 = AXIS2_PLACEMENT_3D ( 'NONE', #49, #178, #103 ) ;
#138 =( GEOMETRIC_REPRESENTATION_CONTEXT ( 3 ) GLOBAL_UNCERTAINTY_ASSIGNED_CONTEXT ( ( #53 ) ) GLOBAL_UNIT_ASSIGNED_CONTEXT ( ( #128, #240, #36 ) ) REPRESENTATION_CONTEXT ( 'NONE', 'WORKASPACE' ) );
#139 = APPROVAL ( #186, 'UNSPECIFIED' ) ;
#140 = DIRECTION ( 'NONE',  ( -3.491481338843133355E-15, 1.224646799147353207E-16, -1.000000000000000000 ) ) ;
#141 = DIRECTION ( 'NONE',  ( -3.491481338843133355E-15, 1.224646799147353207E-16, -1.000000000000000000 ) ) ;
#142 = AXIS2_PLACEMENT_3D ( 'NONE', #110, #131, #76 ) ;
#143 = CARTESIAN_POINT ( 'NONE',  ( 8.728703347107827472E-16, -3.061616997868381169E-17, 0.2499999999999998335 ) ) ;
#144 = FACE_OUTER_BOUND ( 'NONE', #5, .T. ) ;
#145 = DIRECTION ( 'NONE',  ( 0.0000000000000000000, 1.000000000000000000, 0.0000000000000000000 ) ) ;
#146 = AXIS2_PLACEMENT_3D ( 'NONE', #126, #88, #214 ) ;
#147 = APPROVAL_PERSON_ORGANIZATION ( #134, #223, #133 ) ;
#148 = PERSON_AND_ORGANIZATION ( #152, #15 ) ;
#149 = CARTESIAN_POINT ( 'NONE',  ( 1.955229549752154679E-13, 0.9999999999999985567, 56.00000000000000000 ) ) ;
#150 = APPROVAL_DATE_TIME ( #165, #157 ) ;
#151 = DESIGN_CONTEXT ( 'detailed design', #78, 'design' ) ;
#152 = PERSON ( 'UNSPECIFIED', 'UNSPECIFIED', 'UNSPECIFIED', ('UNSPECIFIED'), ('UNSPECIFIED'), ('UNSPECIFIED') ) ;
#153 = DATE_AND_TIME ( #59, #174 ) ;
#154 = PRODUCT_DEFINITION ( 'UNKNOWN', '', #69, #151 ) ;
#155 = DATE_AND_TIME ( #243, #121 ) ;
#156 = ORIENTED_EDGE ( 'NONE', *, *, #85, .F. ) ;
#157 = APPROVAL ( #216, 'UNSPECIFIED' ) ;
#158 = EDGE_LOOP ( 'NONE', ( #19 ) ) ;
#159 = CC_DESIGN_DATE_AND_TIME_ASSIGNMENT ( #155, #62, ( #224 ) ) ;
#160 = CARTESIAN_POINT ( 'NONE',  ( 0.0000000000000000000, 0.0000000000000000000, 0.0000000000000000000 ) ) ;
#161 = ORIENTED_EDGE ( 'NONE', *, *, #129, .F. ) ;
#162 = AXIS2_PLACEMENT_3D ( 'NONE', #211, #122, #213 ) ;
#163 = DIRECTION ( 'NONE',  ( -3.491481338843133355E-15, 1.224646799147353207E-16, -1.000000000000000000 ) ) ;
#164 = CARTESIAN_POINT ( 'NONE',  ( 7.260539396716544006E-14, -2.546654405209655239E-15, 20.79501132067413138 ) ) ;
#165 = DATE_AND_TIME ( #93, #201 ) ;
#166 = CARTESIAN_POINT ( 'NONE',  ( 7.260539396716544006E-14, 1.249999999999993339, 20.79501132067413138 ) ) ;
#167 = CC_DESIGN_APPROVAL ( #139, ( #69 ) ) ;
#168 = PERSON_AND_ORGANIZATION ( #152, #15 ) ;
#169 = PERSON_AND_ORGANIZATION_ROLE ( 'creator' ) ;
#170 = COORDINATED_UNIVERSAL_TIME_OFFSET ( 1, 0, .AHEAD. ) ;
#171 = APPROVAL_PERSON_ORGANIZATION ( #148, #157, #34 ) ;
#172 = EDGE_LOOP ( 'NONE', ( #67 ) ) ;
#173 = CC_DESIGN_PERSON_AND_ORGANIZATION_ASSIGNMENT ( #80, #188, ( #69 ) ) ;
#174 = LOCAL_TIME ( 14, 8, 25.00000000000000000, #242 ) ;
#175 = DIRECTION ( 'NONE',  ( 4.275831445896958607E-31, 1.000000000000000000, 1.224646799147353207E-16 ) ) ;
#176 = CARTESIAN_POINT ( 'NONE',  ( -6.238438079563663078E-31, 2.188149522903650732E-32, -1.786759679955988687E-16 ) ) ;
#177 = FACE_OUTER_BOUND ( 'NONE', #172, .T. ) ;
#178 = DIRECTION ( 'NONE',  ( 3.491481338843133355E-15, -1.224646799147353207E-16, 1.000000000000000000 ) ) ;
#179 = CC_DESIGN_DATE_AND_TIME_ASSIGNMENT ( #38, #115, ( #154 ) ) ;
#180 = DIRECTION ( 'NONE',  ( -4.275831445896958607E-31, -1.000000000000000000, -1.224646799147353207E-16 ) ) ;
#181 = CARTESIAN_POINT ( 'NONE',  ( -3.119219039781831539E-31, 1.094074761451825366E-32, -8.933798399779943435E-17 ) ) ;
#182 = PERSON_AND_ORGANIZATION_ROLE ( 'design_owner' ) ;
#183 = VERTEX_POINT ( 'NONE', #35 ) ;
#184 = EDGE_CURVE ( 'NONE', #52, #52, #60, .T. ) ;
#185 = CLOSED_SHELL ( 'NONE', ( #118, #41, #210, #33, #228 ) ) ;
#186 = APPROVAL_STATUS ( 'not_yet_approved' ) ;
#187 = EDGE_LOOP ( 'NONE', ( #207 ) ) ;
#188 = PERSON_AND_ORGANIZATION_ROLE ( 'design_supplier' ) ;
#189 = EDGE_LOOP ( 'NONE', ( #205 ) ) ;
#190 = EDGE_LOOP ( 'NONE', ( #3 ) ) ;
#191 = DIRECTION ( 'NONE',  ( 3.491481338843133355E-15, -1.224646799147353207E-16, 1.000000000000000000 ) ) ;
#192 = AXIS2_PLACEMENT_3D ( 'NONE', #32, #9, #106 ) ;
#193 = AXIS2_PLACEMENT_3D ( 'NONE', #143, #89, #7 ) ;
#194 = FACE_BOUND ( 'NONE', #158, .T. ) ;
#195 = CC_DESIGN_PERSON_AND_ORGANIZATION_ASSIGNMENT ( #168, #182, ( #55 ) ) ;
#196 = DIRECTION ( 'NONE',  ( -4.507735387682243428E-31, -1.000000000000000000, -1.268814713265659364E-16 ) ) ;
#197 = FACE_OUTER_BOUND ( 'NONE', #105, .T. ) ;
#198 = AXIS2_PLACEMENT_3D ( 'NONE', #30, #215, #180 ) ;
#199 = CYLINDRICAL_SURFACE ( 'NONE', #29, 1.708999999999998520 ) ;
#200 = APPLICATION_PROTOCOL_DEFINITION ( 'international standard', 'config_control_design', 1994, #78 ) ;
#201 = LOCAL_TIME ( 14, 8, 25.00000000000000000, #11 ) ;
#202 = FACE_OUTER_BOUND ( 'NONE', #83, .T. ) ;
#203 = APPLICATION_PROTOCOL_DEFINITION ( 'international standard', 'config_control_design', 1994, #232 ) ;
#204 = APPROVAL_ROLE ( '' ) ;
#205 = ORIENTED_EDGE ( 'NONE', *, *, #184, .F. ) ;
#206 = CALENDAR_DATE ( 2021, 30, 11 ) ;
#207 = ORIENTED_EDGE ( 'NONE', *, *, #129, .T. ) ;
#208 = ORIENTED_EDGE ( 'NONE', *, *, #22, .T. ) ;
#209 = DIRECTION ( 'NONE',  ( 0.0000000000000000000, 1.000000000000000000, 0.0000000000000000000 ) ) ;
#210 = ADVANCED_FACE ( 'NONE', ( #47, #6 ), #84, .T. ) ;
#211 = CARTESIAN_POINT ( 'NONE',  ( 7.260539396716544006E-14, -2.546654405209655239E-15, 20.79501132067413138 ) ) ;
#212 = APPROVAL_PERSON_ORGANIZATION ( #116, #139, #204 ) ;
#213 = DIRECTION ( 'NONE',  ( 0.0000000000000000000, 1.000000000000000000, 0.0000000000000000000 ) ) ;
#214 = DIRECTION ( 'NONE',  ( 0.0000000000000000000, 1.000000000000000000, 0.0000000000000000000 ) ) ;
#215 = DIRECTION ( 'NONE',  ( 3.491481338843133355E-15, -1.224646799147353207E-16, 1.000000000000000000 ) ) ;
#216 = APPROVAL_STATUS ( 'not_yet_approved' ) ;
#217 = EDGE_CURVE ( 'NONE', #54, #54, #231, .T. ) ;
#218 = PERSON_AND_ORGANIZATION ( #152, #15 ) ;
#219 = CIRCLE ( 'NONE', #21, 1.000000000000005551 ) ;
#220 = PLANE ( 'NONE',  #4 ) ;
#221 = CC_DESIGN_PERSON_AND_ORGANIZATION_ASSIGNMENT ( #218, #18, ( #154 ) ) ;
#222 = SHAPE_DEFINITION_REPRESENTATION ( #39, #95 ) ;
#223 = APPROVAL ( #42, 'UNSPECIFIED' ) ;
#224 = SECURITY_CLASSIFICATION ( '', '', #99 ) ;
#225 = PERSON_AND_ORGANIZATION_ROLE ( 'classification_officer' ) ;
#226 = ORIENTED_EDGE ( 'NONE', *, *, #217, .F. ) ;
#227 = CALENDAR_DATE ( 2021, 30, 11 ) ;
#228 = ADVANCED_FACE ( 'NONE', ( #37 ), #58, .F. ) ;
#229 = EDGE_LOOP ( 'NONE', ( #156 ) ) ;
#230 = FACE_BOUND ( 'NONE', #117, .T. ) ;
#231 = CIRCLE ( 'NONE', #114, 1.459000000000000297 ) ;
#232 = APPLICATION_CONTEXT ( 'configuration controlled 3d designs of mechanical parts and assemblies' ) ;
#233 = ADVANCED_FACE ( 'NONE', ( #202 ), #220, .F. ) ;
#234 = CARTESIAN_POINT ( 'NONE',  ( 1.946500846405046877E-13, -6.827405905246494765E-15, 55.75000000000000000 ) ) ;
#235 = FACE_BOUND ( 'NONE', #119, .T. ) ;
#236 = CARTESIAN_POINT ( 'NONE',  ( 1.955229549752154679E-13, -6.858022075225178552E-15, 56.00000000000000000 ) ) ;
#237 = CONICAL_SURFACE ( 'NONE', #23, 1.249999999999996003, 0.5235987755982930425 ) ;
#238 = AXIS2_PLACEMENT_3D ( 'NONE', #160, #26, #104 ) ;
#239 = VERTEX_POINT ( 'NONE', #149 ) ;
#240 =( NAMED_UNIT ( * ) PLANE_ANGLE_UNIT ( ) SI_UNIT ( $, .RADIAN. ) );
#241 = DIRECTION ( 'NONE',  ( -4.275831445896958607E-31, -1.000000000000000000, -1.224646799147353207E-16 ) ) ;
#242 = COORDINATED_UNIVERSAL_TIME_OFFSET ( 1, 0, .AHEAD. ) ;
#243 = CALENDAR_DATE ( 2021, 30, 11 ) ;
ENDSEC;
END-ISO-10303-21;
