ISO-10303-21;
HEADER;
FILE_DESCRIPTION (( 'STEP AP203' ),
    '1' );
FILE_NAME ('969414.step',
    '2021-11-30T13:08:24',
    ( '' ),
    ( '' ),
    'SwSTEP 2.0',
    'SolidWorks 2019',
    '' );
FILE_SCHEMA (( 'CONFIG_CONTROL_DESIGN' ));
ENDSEC;

DATA;
#1 = CC_DESIGN_APPROVAL ( #227, ( #113 ) ) ;
#2 = AXIS2_PLACEMENT_3D ( 'NONE', #242, #78, #143 ) ;
#3 = ADVANCED_BREP_SHAPE_REPRESENTATION ( '969414', ( #190, #44, #62 ), #67 ) ;
#4 = CARTESIAN_POINT ( 'NONE',  ( 1.955229549752154679E-13, 0.9999999999999985567, 56.00000000000000000 ) ) ;
#5 = DATE_TIME_ROLE ( 'classification_date' ) ;
#6 = PERSON_AND_ORGANIZATION ( #52, #216 ) ;
#7 = CIRCLE ( 'NONE', #200, 1.703999999999999515 ) ;
#8 = CARTESIAN_POINT ( 'NONE',  ( 7.257515685180265870E-14, -2.545593829970930195E-15, 20.78635106663628918 ) ) ;
#9 = PRODUCT ( '969414', '969414', '', ( #69 ) ) ;
#10 = EDGE_LOOP ( 'NONE', ( #191 ) ) ;
#11 = DIRECTION ( 'NONE',  ( -4.275831445896958607E-31, -1.000000000000000000, -1.224646799147353207E-16 ) ) ;
#12 = LOCAL_TIME ( 14, 8, 24.00000000000000000, #106 ) ;
#13 = ORIENTED_EDGE ( 'NONE', *, *, #24, .F. ) ;
#14 = DIRECTION ( 'NONE',  ( -3.491481338843133355E-15, 1.224646799147353207E-16, -1.000000000000000000 ) ) ;
#15 = APPLICATION_PROTOCOL_DEFINITION ( 'international standard', 'config_control_design', 1994, #206 ) ;
#16 = ORIENTED_EDGE ( 'NONE', *, *, #229, .T. ) ;
#17 = ADVANCED_FACE ( 'NONE', ( #218, #35 ), #164, .T. ) ;
#18 = CALENDAR_DATE ( 2021, 30, 11 ) ;
#19 = EDGE_LOOP ( 'NONE', ( #213 ) ) ;
#20 = PRODUCT_DEFINITION_FORMATION_WITH_SPECIFIED_SOURCE ( 'ANY', '', #9, .NOT_KNOWN. ) ;
#21 = CARTESIAN_POINT ( 'NONE',  ( 8.924827688731110736E-31, -3.130408156661576703E-32, 2.556172243981765432E-16 ) ) ;
#22 = CIRCLE ( 'NONE', #203, 1.249999999999996003 ) ;
#23 = DIRECTION ( 'NONE',  ( -3.491481338843133355E-15, 1.224646799147353207E-16, -1.000000000000000000 ) ) ;
#24 = EDGE_CURVE ( 'NONE', #108, #108, #7, .T. ) ;
#25 = CALENDAR_DATE ( 2021, 30, 11 ) ;
#26 = AXIS2_PLACEMENT_3D ( 'NONE', #95, #195, #166 ) ;
#27 = ADVANCED_FACE ( 'NONE', ( #33 ), #194, .F. ) ;
#28 = CIRCLE ( 'NONE', #131, 1.250000000000005329 ) ;
#29 = COORDINATED_UNIVERSAL_TIME_OFFSET ( 1, 0, .AHEAD. ) ;
#30 = EDGE_CURVE ( 'NONE', #79, #79, #28, .T. ) ;
#31 = AXIS2_PLACEMENT_3D ( 'NONE', #181, #23, #105 ) ;
#32 = DIRECTION ( 'NONE',  ( 3.491481338843133355E-15, -1.224646799147353207E-16, 1.000000000000000000 ) ) ;
#33 = FACE_OUTER_BOUND ( 'NONE', #174, .T. ) ;
#34 = ADVANCED_FACE ( 'NONE', ( #57 ), #93, .F. ) ;
#35 = FACE_BOUND ( 'NONE', #60, .T. ) ;
#36 = DIRECTION ( 'NONE',  ( -4.275831445896958607E-31, -1.000000000000000000, -1.224646799147353207E-16 ) ) ;
#37 = EDGE_LOOP ( 'NONE', ( #102 ) ) ;
#38 = LOCAL_TIME ( 14, 8, 24.00000000000000000, #179 ) ;
#39 = AXIS2_PLACEMENT_3D ( 'NONE', #58, #133, #11 ) ;
#40 = ORIENTED_EDGE ( 'NONE', *, *, #24, .T. ) ;
#41 = CARTESIAN_POINT ( 'NONE',  ( 1.955229549752154679E-13, -6.858022075225178552E-15, 56.00000000000000000 ) ) ;
#42 = DIRECTION ( 'NONE',  ( 0.0000000000000000000, 1.000000000000000000, 0.0000000000000000000 ) ) ;
#43 = DIRECTION ( 'NONE',  ( 0.0000000000000000000, 1.000000000000000000, 0.0000000000000000000 ) ) ;
#44 = MANIFOLD_SOLID_BREP ( 'Corps-Déplacer/Copier1[2]', #220 ) ;
#45 = DIRECTION ( 'NONE',  ( 4.275831445896959482E-31, 1.000000000000000000, 1.224646799147353207E-16 ) ) ;
#46 = ADVANCED_FACE ( 'NONE', ( #222, #65 ), #168, .T. ) ;
#47 = AXIS2_PLACEMENT_3D ( 'NONE', #144, #219, #215 ) ;
#48 = DIRECTION ( 'NONE',  ( 0.0000000000000000000, 0.0000000000000000000, 1.000000000000000000 ) ) ;
#49 = CIRCLE ( 'NONE', #26, 1.703999999999997517 ) ;
#50 =( NAMED_UNIT ( * ) PLANE_ANGLE_UNIT ( ) SI_UNIT ( $, .RADIAN. ) );
#51 = CC_DESIGN_PERSON_AND_ORGANIZATION_ASSIGNMENT ( #202, #99, ( #113 ) ) ;
#52 = PERSON ( 'UNSPECIFIED', 'UNSPECIFIED', 'UNSPECIFIED', ('UNSPECIFIED'), ('UNSPECIFIED'), ('UNSPECIFIED') ) ;
#53 = SHAPE_DEFINITION_REPRESENTATION ( #228, #3 ) ;
#54 = CIRCLE ( 'NONE', #130, 1.000000000000005551 ) ;
#55 = ORIENTED_EDGE ( 'NONE', *, *, #30, .T. ) ;
#56 = PLANE ( 'NONE',  #39 ) ;
#57 = FACE_OUTER_BOUND ( 'NONE', #19, .T. ) ;
#58 = CARTESIAN_POINT ( 'NONE',  ( 6.982962677686266711E-14, 1.277795334827898653E-32, 20.00000000000000000 ) ) ;
#59 = PERSON_AND_ORGANIZATION ( #52, #216 ) ;
#60 = EDGE_LOOP ( 'NONE', ( #16 ) ) ;
#61 = DIRECTION ( 'NONE',  ( -3.491481338843133355E-15, 1.224646799147353207E-16, -1.000000000000000000 ) ) ;
#62 = AXIS2_PLACEMENT_3D ( 'NONE', #193, #48, #63 ) ;
#63 = DIRECTION ( 'NONE',  ( 1.000000000000000000, 0.0000000000000000000, 0.0000000000000000000 ) ) ;
#64 = DIRECTION ( 'NONE',  ( 0.0000000000000000000, 1.000000000000000000, 0.0000000000000000000 ) ) ;
#65 = FACE_BOUND ( 'NONE', #173, .T. ) ;
#66 = FACE_OUTER_BOUND ( 'NONE', #76, .T. ) ;
#67 =( GEOMETRIC_REPRESENTATION_CONTEXT ( 3 ) GLOBAL_UNCERTAINTY_ASSIGNED_CONTEXT ( ( #230 ) ) GLOBAL_UNIT_ASSIGNED_CONTEXT ( ( #201, #50, #73 ) ) REPRESENTATION_CONTEXT ( 'NONE', 'WORKASPACE' ) );
#68 = PERSON_AND_ORGANIZATION_ROLE ( 'design_supplier' ) ;
#69 = MECHANICAL_CONTEXT ( 'NONE', #206, 'mechanical' ) ;
#70 = APPROVAL_PERSON_ORGANIZATION ( #136, #147, #75 ) ;
#71 = AXIS2_PLACEMENT_3D ( 'NONE', #8, #87, #117 ) ;
#72 = ORIENTED_EDGE ( 'NONE', *, *, #178, .T. ) ;
#73 =( NAMED_UNIT ( * ) SI_UNIT ( $, .STERADIAN. ) SOLID_ANGLE_UNIT ( ) );
#74 = DIRECTION ( 'NONE',  ( -3.491481338843133355E-15, 1.224646799147353207E-16, -1.000000000000000000 ) ) ;
#75 = APPROVAL_ROLE ( '' ) ;
#76 = EDGE_LOOP ( 'NONE', ( #40 ) ) ;
#77 = CARTESIAN_POINT ( 'NONE',  ( 7.257515685180265870E-14, 1.249999999999993339, 20.78635106663628918 ) ) ;
#78 = DIRECTION ( 'NONE',  ( -3.491481338843133355E-15, 1.224646799147353207E-16, -1.000000000000000000 ) ) ;
#79 = VERTEX_POINT ( 'NONE', #182 ) ;
#80 = DIRECTION ( 'NONE',  ( 4.275831445896958607E-31, 1.000000000000000000, 1.224646799147353207E-16 ) ) ;
#81 = PERSON_AND_ORGANIZATION_ROLE ( 'creator' ) ;
#82 = APPROVAL_DATE_TIME ( #153, #227 ) ;
#83 = ADVANCED_FACE ( 'NONE', ( #154 ), #56, .T. ) ;
#84 = APPROVAL_STATUS ( 'not_yet_approved' ) ;
#85 = CONICAL_SURFACE ( 'NONE', #47, 1.703999999999997517, 0.7853981633974435050 ) ;
#86 = AXIS2_PLACEMENT_3D ( 'NONE', #155, #74, #42 ) ;
#87 = DIRECTION ( 'NONE',  ( -3.491481338843133355E-15, 1.224646799147353207E-16, -1.000000000000000000 ) ) ;
#88 = EDGE_LOOP ( 'NONE', ( #13 ) ) ;
#89 = CC_DESIGN_PERSON_AND_ORGANIZATION_ASSIGNMENT ( #142, #68, ( #20 ) ) ;
#90 = CARTESIAN_POINT ( 'NONE',  ( 6.982962677686266711E-14, -2.449293598294706513E-15, 20.00000000000000000 ) ) ;
#91 = ORIENTED_EDGE ( 'NONE', *, *, #224, .T. ) ;
#92 = PERSON_AND_ORGANIZATION ( #52, #216 ) ;
#93 = PLANE ( 'NONE',  #2 ) ;
#94 = CARTESIAN_POINT ( 'NONE',  ( 0.0000000000000000000, 0.0000000000000000000, 0.0000000000000000000 ) ) ;
#95 = CARTESIAN_POINT ( 'NONE',  ( 8.728703347107827472E-16, -3.061616997868381169E-17, 0.2499999999999998335 ) ) ;
#96 = CC_DESIGN_APPROVAL ( #132, ( #20 ) ) ;
#97 = APPROVAL_DATE_TIME ( #175, #147 ) ;
#98 = AXIS2_PLACEMENT_3D ( 'NONE', #94, #61, #45 ) ;
#99 = PERSON_AND_ORGANIZATION_ROLE ( 'classification_officer' ) ;
#100 = CIRCLE ( 'NONE', #185, 1.703999999999999515 ) ;
#101 = FACE_BOUND ( 'NONE', #104, .T. ) ;
#102 = ORIENTED_EDGE ( 'NONE', *, *, #30, .F. ) ;
#103 = COORDINATED_UNIVERSAL_TIME_OFFSET ( 1, 0, .AHEAD. ) ;
#104 = EDGE_LOOP ( 'NONE', ( #121 ) ) ;
#105 = DIRECTION ( 'NONE',  ( 4.275831445896957731E-31, 1.000000000000000000, 1.224646799147353454E-16 ) ) ;
#106 = COORDINATED_UNIVERSAL_TIME_OFFSET ( 1, 0, .AHEAD. ) ;
#107 = DIRECTION ( 'NONE',  ( -4.275831445896958607E-31, -1.000000000000000000, -1.224646799147353207E-16 ) ) ;
#108 = VERTEX_POINT ( 'NONE', #110 ) ;
#109 = CC_DESIGN_PERSON_AND_ORGANIZATION_ASSIGNMENT ( #59, #81, ( #149 ) ) ;
#110 = CARTESIAN_POINT ( 'NONE',  ( 6.982962677686266711E-14, 1.703999999999997073, 20.00000000000000000 ) ) ;
#111 = DIRECTION ( 'NONE',  ( -3.491481338843133355E-15, 1.224646799147353207E-16, -1.000000000000000000 ) ) ;
#112 = DATE_TIME_ROLE ( 'creation_date' ) ;
#113 = SECURITY_CLASSIFICATION ( '', '', #129 ) ;
#114 = EDGE_CURVE ( 'NONE', #240, #240, #22, .T. ) ;
#115 = DESIGN_CONTEXT ( 'detailed design', #225, 'design' ) ;
#116 = COORDINATED_UNIVERSAL_TIME_OFFSET ( 1, 0, .AHEAD. ) ;
#117 = DIRECTION ( 'NONE',  ( 0.0000000000000000000, 1.000000000000000000, 0.0000000000000000000 ) ) ;
#118 = CARTESIAN_POINT ( 'NONE',  ( 6.982962677686266711E-14, -2.449293598294706513E-15, 20.00000000000000000 ) ) ;
#119 = ADVANCED_FACE ( 'NONE', ( #196 ), #210, .F. ) ;
#120 = EDGE_LOOP ( 'NONE', ( #55 ) ) ;
#121 = ORIENTED_EDGE ( 'NONE', *, *, #224, .F. ) ;
#122 = DIRECTION ( 'NONE',  ( 3.491481338843133355E-15, -1.224646799147353207E-16, 1.000000000000000000 ) ) ;
#123 = CALENDAR_DATE ( 2021, 30, 11 ) ;
#124 = EDGE_LOOP ( 'NONE', ( #192 ) ) ;
#125 = CYLINDRICAL_SURFACE ( 'NONE', #31, 1.250000000000000666 ) ;
#126 = LOCAL_TIME ( 14, 8, 24.00000000000000000, #103 ) ;
#127 = CARTESIAN_POINT ( 'NONE',  ( 1.514188661106529085E-30, 1.454000000000000403, 4.336808689942017736E-16 ) ) ;
#128 = CC_DESIGN_PERSON_AND_ORGANIZATION_ASSIGNMENT ( #158, #160, ( #9 ) ) ;
#129 = SECURITY_CLASSIFICATION_LEVEL ( 'unclassified' ) ;
#130 = AXIS2_PLACEMENT_3D ( 'NONE', #41, #111, #43 ) ;
#131 = AXIS2_PLACEMENT_3D ( 'NONE', #157, #180, #135 ) ;
#132 = APPROVAL ( #169, 'UNSPECIFIED' ) ;
#133 = DIRECTION ( 'NONE',  ( 3.491481338843133355E-15, -1.224646799147353207E-16, 1.000000000000000000 ) ) ;
#134 = ORIENTED_EDGE ( 'NONE', *, *, #114, .T. ) ;
#135 = DIRECTION ( 'NONE',  ( 0.0000000000000000000, 1.000000000000000000, 0.0000000000000000000 ) ) ;
#136 = PERSON_AND_ORGANIZATION ( #52, #216 ) ;
#137 = DIRECTION ( 'NONE',  ( -3.491481338843133355E-15, 1.224646799147353207E-16, -1.000000000000000000 ) ) ;
#138 = FACE_OUTER_BOUND ( 'NONE', #176, .T. ) ;
#139 = PERSON_AND_ORGANIZATION ( #52, #216 ) ;
#140 = ORIENTED_EDGE ( 'NONE', *, *, #214, .T. ) ;
#141 = CARTESIAN_POINT ( 'NONE',  ( 6.982962677686266711E-14, 1.703999999999997073, 20.00000000000000000 ) ) ;
#142 = PERSON_AND_ORGANIZATION ( #52, #216 ) ;
#143 = DIRECTION ( 'NONE',  ( 4.275831445896958607E-31, 1.000000000000000000, 1.224646799147353207E-16 ) ) ;
#144 = CARTESIAN_POINT ( 'NONE',  ( 8.728703347107827472E-16, -3.061616997868381169E-17, 0.2499999999999998335 ) ) ;
#145 = DIRECTION ( 'NONE',  ( -3.491481338843133355E-15, 1.224646799147353207E-16, -1.000000000000000000 ) ) ;
#146 = APPROVAL_PERSON_ORGANIZATION ( #139, #132, #217 ) ;
#147 = APPROVAL ( #184, 'UNSPECIFIED' ) ;
#148 = DATE_AND_TIME ( #18, #38 ) ;
#149 = PRODUCT_DEFINITION ( 'UNKNOWN', '', #20, #115 ) ;
#150 = CC_DESIGN_DATE_AND_TIME_ASSIGNMENT ( #205, #5, ( #113 ) ) ;
#151 = APPROVAL_ROLE ( '' ) ;
#152 = CC_DESIGN_SECURITY_CLASSIFICATION ( #113, ( #20 ) ) ;
#153 = DATE_AND_TIME ( #171, #231 ) ;
#154 = FACE_OUTER_BOUND ( 'NONE', #88, .T. ) ;
#155 = CARTESIAN_POINT ( 'NONE',  ( 1.955229549752154679E-13, -6.858022075225178552E-15, 56.00000000000000000 ) ) ;
#156 = CIRCLE ( 'NONE', #199, 1.454000000000000403 ) ;
#157 = CARTESIAN_POINT ( 'NONE',  ( 1.946500846405046877E-13, -6.827405905246494765E-15, 55.75000000000000000 ) ) ;
#158 = PERSON_AND_ORGANIZATION ( #52, #216 ) ;
#159 = DIRECTION ( 'NONE',  ( 0.0000000000000000000, 1.000000000000000000, 0.0000000000000000000 ) ) ;
#160 = PERSON_AND_ORGANIZATION_ROLE ( 'design_owner' ) ;
#161 = LOCAL_TIME ( 14, 8, 24.00000000000000000, #116 ) ;
#162 = APPROVAL_DATE_TIME ( #148, #132 ) ;
#163 = FACE_OUTER_BOUND ( 'NONE', #239, .T. ) ;
#164 = CONICAL_SURFACE ( 'NONE', #86, 1.000000000000005551, 0.7853981633974473908 ) ;
#165 = VERTEX_POINT ( 'NONE', #243 ) ;
#166 = DIRECTION ( 'NONE',  ( 4.520962310768166220E-31, 1.000000000000000000, 1.272537761133223120E-16 ) ) ;
#167 = DATE_AND_TIME ( #25, #126 ) ;
#168 = CONICAL_SURFACE ( 'NONE', #71, 1.249999999999996003, 0.5235987755982927094 ) ;
#169 = APPROVAL_STATUS ( 'not_yet_approved' ) ;
#170 = CC_DESIGN_PERSON_AND_ORGANIZATION_ASSIGNMENT ( #92, #241, ( #20 ) ) ;
#171 = CALENDAR_DATE ( 2021, 30, 11 ) ;
#172 = CC_DESIGN_DATE_AND_TIME_ASSIGNMENT ( #167, #112, ( #149 ) ) ;
#173 = EDGE_LOOP ( 'NONE', ( #134 ) ) ;
#174 = EDGE_LOOP ( 'NONE', ( #91 ) ) ;
#175 = DATE_AND_TIME ( #123, #12 ) ;
#176 = EDGE_LOOP ( 'NONE', ( #140 ) ) ;
#177 = VERTEX_POINT ( 'NONE', #141 ) ;
#178 = EDGE_CURVE ( 'NONE', #177, #177, #100, .T. ) ;
#179 = COORDINATED_UNIVERSAL_TIME_OFFSET ( 1, 0, .AHEAD. ) ;
#180 = DIRECTION ( 'NONE',  ( -3.491481338843133355E-15, 1.224646799147353207E-16, -1.000000000000000000 ) ) ;
#181 = CARTESIAN_POINT ( 'NONE',  ( 0.0000000000000000000, 0.0000000000000000000, 0.0000000000000000000 ) ) ;
#182 = CARTESIAN_POINT ( 'NONE',  ( 1.946500846405046877E-13, 1.249999999999998446, 55.75000000000000000 ) ) ;
#183 = FACE_OUTER_BOUND ( 'NONE', #120, .T. ) ;
#184 = APPROVAL_STATUS ( 'not_yet_approved' ) ;
#185 = AXIS2_PLACEMENT_3D ( 'NONE', #118, #236, #212 ) ;
#186 = CLOSED_SHELL ( 'NONE', ( #119, #46, #232, #17, #34 ) ) ;
#187 = APPROVAL_PERSON_ORGANIZATION ( #6, #227, #151 ) ;
#188 = ADVANCED_FACE ( 'NONE', ( #101, #138 ), #85, .T. ) ;
#189 = CARTESIAN_POINT ( 'NONE',  ( 6.982962677686266711E-14, 1.277795334827898653E-32, 20.00000000000000000 ) ) ;
#190 = MANIFOLD_SOLID_BREP ( 'Corps-Déplacer/Copier1[1]', #186 ) ;
#191 = ORIENTED_EDGE ( 'NONE', *, *, #178, .F. ) ;
#192 = ORIENTED_EDGE ( 'NONE', *, *, #114, .F. ) ;
#193 = CARTESIAN_POINT ( 'NONE',  ( 0.0000000000000000000, 0.0000000000000000000, 0.0000000000000000000 ) ) ;
#194 = PLANE ( 'NONE',  #221 ) ;
#195 = DIRECTION ( 'NONE',  ( -3.491481338843133355E-15, 1.224646799147353207E-16, -1.000000000000000000 ) ) ;
#196 = FACE_OUTER_BOUND ( 'NONE', #197, .T. ) ;
#197 = EDGE_LOOP ( 'NONE', ( #72 ) ) ;
#198 = CYLINDRICAL_SURFACE ( 'NONE', #98, 1.703999999999998405 ) ;
#199 = AXIS2_PLACEMENT_3D ( 'NONE', #21, #145, #80 ) ;
#200 = AXIS2_PLACEMENT_3D ( 'NONE', #90, #137, #64 ) ;
#201 =( LENGTH_UNIT ( ) NAMED_UNIT ( * ) SI_UNIT ( .MILLI., .METRE. ) );
#202 = PERSON_AND_ORGANIZATION ( #52, #216 ) ;
#203 = AXIS2_PLACEMENT_3D ( 'NONE', #209, #14, #159 ) ;
#204 = VERTEX_POINT ( 'NONE', #4 ) ;
#205 = DATE_AND_TIME ( #233, #161 ) ;
#206 = APPLICATION_CONTEXT ( 'configuration controlled 3d designs of mechanical parts and assemblies' ) ;
#207 = ADVANCED_FACE ( 'NONE', ( #163, #66 ), #198, .T. ) ;
#208 = AXIS2_PLACEMENT_3D ( 'NONE', #189, #32, #36 ) ;
#209 = CARTESIAN_POINT ( 'NONE',  ( 7.257515685180265870E-14, -2.545593829970930195E-15, 20.78635106663628918 ) ) ;
#210 = PLANE ( 'NONE',  #208 ) ;
#211 = CARTESIAN_POINT ( 'NONE',  ( 4.462413844365555368E-31, -1.565204078330788351E-32, 1.278086121990882716E-16 ) ) ;
#212 = DIRECTION ( 'NONE',  ( 0.0000000000000000000, 1.000000000000000000, 0.0000000000000000000 ) ) ;
#213 = ORIENTED_EDGE ( 'NONE', *, *, #229, .F. ) ;
#214 = EDGE_CURVE ( 'NONE', #165, #165, #49, .T. ) ;
#215 = DIRECTION ( 'NONE',  ( -4.520962310768166220E-31, -1.000000000000000000, -1.272537761133223120E-16 ) ) ;
#216 = ORGANIZATION ( 'UNSPECIFIED', 'UNSPECIFIED', '' ) ;
#217 = APPROVAL_ROLE ( '' ) ;
#218 = FACE_OUTER_BOUND ( 'NONE', #37, .T. ) ;
#219 = DIRECTION ( 'NONE',  ( 3.491481338843133355E-15, -1.224646799147353207E-16, 1.000000000000000000 ) ) ;
#220 = CLOSED_SHELL ( 'NONE', ( #27, #188, #207, #83 ) ) ;
#221 = AXIS2_PLACEMENT_3D ( 'NONE', #211, #122, #107 ) ;
#222 = FACE_OUTER_BOUND ( 'NONE', #10, .T. ) ;
#223 = FACE_OUTER_BOUND ( 'NONE', #124, .T. ) ;
#224 = EDGE_CURVE ( 'NONE', #226, #226, #156, .T. ) ;
#225 = APPLICATION_CONTEXT ( 'configuration controlled 3d designs of mechanical parts and assemblies' ) ;
#226 = VERTEX_POINT ( 'NONE', #127 ) ;
#227 = APPROVAL ( #84, 'UNSPECIFIED' ) ;
#228 = PRODUCT_DEFINITION_SHAPE ( 'NONE', 'NONE',  #149 ) ;
#229 = EDGE_CURVE ( 'NONE', #204, #204, #54, .T. ) ;
#230 = UNCERTAINTY_MEASURE_WITH_UNIT (LENGTH_MEASURE( 1.000000000000000082E-05 ), #201, 'distance_accuracy_value', 'NONE');
#231 = LOCAL_TIME ( 14, 8, 24.00000000000000000, #29 ) ;
#232 = ADVANCED_FACE ( 'NONE', ( #223, #183 ), #125, .T. ) ;
#233 = CALENDAR_DATE ( 2021, 30, 11 ) ;
#234 = ORIENTED_EDGE ( 'NONE', *, *, #214, .F. ) ;
#235 = CC_DESIGN_APPROVAL ( #147, ( #149 ) ) ;
#236 = DIRECTION ( 'NONE',  ( -3.491481338843133355E-15, 1.224646799147353207E-16, -1.000000000000000000 ) ) ;
#237 = PRODUCT_RELATED_PRODUCT_CATEGORY ( 'detail', '', ( #9 ) ) ;
#238 = APPLICATION_PROTOCOL_DEFINITION ( 'international standard', 'config_control_design', 1994, #225 ) ;
#239 = EDGE_LOOP ( 'NONE', ( #234 ) ) ;
#240 = VERTEX_POINT ( 'NONE', #77 ) ;
#241 = PERSON_AND_ORGANIZATION_ROLE ( 'creator' ) ;
#242 = CARTESIAN_POINT ( 'NONE',  ( 1.955229549752154679E-13, 7.498798913309223722E-33, 56.00000000000000000 ) ) ;
#243 = CARTESIAN_POINT ( 'NONE',  ( 8.728703347107835360E-16, 1.703999999999997517, 0.2500000000000000555 ) ) ;
ENDSEC;
END-ISO-10303-21;
