ISO-10303-21;
HEADER;
FILE_DESCRIPTION (( 'STEP AP203' ),
    '1' );
FILE_NAME ('969413.step',
    '2021-11-30T13:08:23',
    ( '' ),
    ( '' ),
    'SwSTEP 2.0',
    'SolidWorks 2019',
    '' );
FILE_SCHEMA (( 'CONFIG_CONTROL_DESIGN' ));
ENDSEC;

DATA;
#1 = APPROVAL_STATUS ( 'not_yet_approved' ) ;
#2 = LOCAL_TIME ( 14, 8, 23.00000000000000000, #185 ) ;
#3 = ADVANCED_BREP_SHAPE_REPRESENTATION ( '969413', ( #203, #47, #88 ), #13 ) ;
#4 = ORIENTED_EDGE ( 'NONE', *, *, #192, .F. ) ;
#5 = PERSON_AND_ORGANIZATION_ROLE ( 'creator' ) ;
#6 = DIRECTION ( 'NONE',  ( 0.0000000000000000000, 1.000000000000000000, 0.0000000000000000000 ) ) ;
#7 = CARTESIAN_POINT ( 'NONE',  ( 0.0000000000000000000, 0.0000000000000000000, 0.0000000000000000000 ) ) ;
#8 = APPROVAL_ROLE ( '' ) ;
#9 = AXIS2_PLACEMENT_3D ( 'NONE', #15, #17, #202 ) ;
#10 = DIRECTION ( 'NONE',  ( 4.275831445896957731E-31, 1.000000000000000000, 1.224646799147353454E-16 ) ) ;
#11 = CARTESIAN_POINT ( 'NONE',  ( 1.955229549752154679E-13, -6.858022075225178552E-15, 56.00000000000000000 ) ) ;
#12 = CARTESIAN_POINT ( 'NONE',  ( 0.0000000000000000000, 0.0000000000000000000, 0.0000000000000000000 ) ) ;
#13 =( GEOMETRIC_REPRESENTATION_CONTEXT ( 3 ) GLOBAL_UNCERTAINTY_ASSIGNED_CONTEXT ( ( #233 ) ) GLOBAL_UNIT_ASSIGNED_CONTEXT ( ( #59, #80, #76 ) ) REPRESENTATION_CONTEXT ( 'NONE', 'WORKASPACE' ) );
#14 = EDGE_LOOP ( 'NONE', ( #61 ) ) ;
#15 = CARTESIAN_POINT ( 'NONE',  ( 1.946500846405046877E-13, -6.827405905246494765E-15, 55.75000000000000000 ) ) ;
#16 = ADVANCED_FACE ( 'NONE', ( #24 ), #179, .T. ) ;
#17 = DIRECTION ( 'NONE',  ( -3.491481338843133355E-15, 1.224646799147353207E-16, -1.000000000000000000 ) ) ;
#18 = DIRECTION ( 'NONE',  ( -3.491481338843133355E-15, 1.224646799147353207E-16, -1.000000000000000000 ) ) ;
#19 = CIRCLE ( 'NONE', #196, 1.000000000000005551 ) ;
#20 = DATE_AND_TIME ( #56, #2 ) ;
#21 = EDGE_CURVE ( 'NONE', #155, #155, #102, .T. ) ;
#22 = CARTESIAN_POINT ( 'NONE',  ( 0.0000000000000000000, 0.0000000000000000000, 0.0000000000000000000 ) ) ;
#23 = CARTESIAN_POINT ( 'NONE',  ( 6.982962677686265448E-14, -2.449293598294706119E-15, 19.99999999999999645 ) ) ;
#24 = FACE_OUTER_BOUND ( 'NONE', #177, .T. ) ;
#25 = PERSON_AND_ORGANIZATION ( #90, #118 ) ;
#26 = EDGE_CURVE ( 'NONE', #211, #211, #100, .T. ) ;
#27 = AXIS2_PLACEMENT_3D ( 'NONE', #169, #91, #6 ) ;
#28 = DIRECTION ( 'NONE',  ( -4.275831445896958607E-31, -1.000000000000000000, -1.224646799147353207E-16 ) ) ;
#29 = AXIS2_PLACEMENT_3D ( 'NONE', #12, #86, #10 ) ;
#30 = ADVANCED_FACE ( 'NONE', ( #38, #112 ), #41, .T. ) ;
#31 = PRODUCT_DEFINITION_SHAPE ( 'NONE', 'NONE',  #130 ) ;
#32 = CIRCLE ( 'NONE', #189, 1.693999999999997508 ) ;
#33 = VERTEX_POINT ( 'NONE', #99 ) ;
#34 = CLOSED_SHELL ( 'NONE', ( #136, #152, #84, #16 ) ) ;
#35 = COORDINATED_UNIVERSAL_TIME_OFFSET ( 1, 0, .AHEAD. ) ;
#36 = DATE_TIME_ROLE ( 'creation_date' ) ;
#37 = ADVANCED_FACE ( 'NONE', ( #158 ), #125, .F. ) ;
#38 = FACE_OUTER_BOUND ( 'NONE', #50, .T. ) ;
#39 = DATE_AND_TIME ( #200, #145 ) ;
#40 = DIRECTION ( 'NONE',  ( 0.0000000000000000000, 1.000000000000000000, 0.0000000000000000000 ) ) ;
#41 = CONICAL_SURFACE ( 'NONE', #27, 1.000000000000005551, 0.7853981633974473908 ) ;
#42 = VERTEX_POINT ( 'NONE', #103 ) ;
#43 = ORIENTED_EDGE ( 'NONE', *, *, #209, .F. ) ;
#44 = CC_DESIGN_PERSON_AND_ORGANIZATION_ASSIGNMENT ( #110, #231, ( #75 ) ) ;
#45 = CARTESIAN_POINT ( 'NONE',  ( 5.182114350423759641E-31, -1.817641034325215797E-32, 1.484216539487734996E-16 ) ) ;
#46 = AXIS2_PLACEMENT_3D ( 'NONE', #45, #119, #63 ) ;
#47 = MANIFOLD_SOLID_BREP ( 'Corps-Déplacer/Copier1[2]', #34 ) ;
#48 = CARTESIAN_POINT ( 'NONE',  ( 2.591057175211879820E-31, -9.088205171626078984E-33, 7.421082697438674979E-17 ) ) ;
#49 = DIRECTION ( 'NONE',  ( -4.547650399969867329E-31, -1.000000000000000000, -1.280049790419723850E-16 ) ) ;
#50 = EDGE_LOOP ( 'NONE', ( #226 ) ) ;
#51 = CC_DESIGN_DATE_AND_TIME_ASSIGNMENT ( #20, #170, ( #104 ) ) ;
#52 = EDGE_LOOP ( 'NONE', ( #4 ) ) ;
#53 = PERSON_AND_ORGANIZATION ( #90, #118 ) ;
#54 = AXIS2_PLACEMENT_3D ( 'NONE', #186, #238, #68 ) ;
#55 = DATE_AND_TIME ( #221, #71 ) ;
#56 = CALENDAR_DATE ( 2021, 30, 11 ) ;
#57 = PLANE ( 'NONE',  #241 ) ;
#58 = CARTESIAN_POINT ( 'NONE',  ( 6.982962677686265448E-14, 4.375876758112993897E-31, 19.99999999999999645 ) ) ;
#59 =( LENGTH_UNIT ( ) NAMED_UNIT ( * ) SI_UNIT ( .MILLI., .METRE. ) );
#60 = CARTESIAN_POINT ( 'NONE',  ( 8.728703347107835360E-16, 1.693999999999997508, 0.2500000000000000555 ) ) ;
#61 = ORIENTED_EDGE ( 'NONE', *, *, #146, .F. ) ;
#62 = PERSON_AND_ORGANIZATION ( #90, #118 ) ;
#63 = DIRECTION ( 'NONE',  ( 4.275831445896957731E-31, 1.000000000000000000, 1.224646799147352961E-16 ) ) ;
#64 = DIRECTION ( 'NONE',  ( 0.0000000000000000000, 1.000000000000000000, 0.0000000000000000000 ) ) ;
#65 = CARTESIAN_POINT ( 'NONE',  ( 1.946500846405046877E-13, 1.249999999999998446, 55.75000000000000000 ) ) ;
#66 = CARTESIAN_POINT ( 'NONE',  ( 8.728703347107827472E-16, -3.061616997868381169E-17, 0.2499999999999998335 ) ) ;
#67 = AXIS2_PLACEMENT_3D ( 'NONE', #224, #111, #77 ) ;
#68 = DIRECTION ( 'NONE',  ( -4.275831445896958607E-31, -1.000000000000000000, -1.224646799147353207E-16 ) ) ;
#69 = ORIENTED_EDGE ( 'NONE', *, *, #146, .T. ) ;
#70 = DIRECTION ( 'NONE',  ( 3.491481338843133355E-15, -1.224646799147353207E-16, 1.000000000000000000 ) ) ;
#71 = LOCAL_TIME ( 14, 8, 23.00000000000000000, #35 ) ;
#72 = PERSON_AND_ORGANIZATION ( #90, #118 ) ;
#73 = DIRECTION ( 'NONE',  ( -3.491481338843133355E-15, 1.224646799147353207E-16, -1.000000000000000000 ) ) ;
#74 = MECHANICAL_CONTEXT ( 'NONE', #120, 'mechanical' ) ;
#75 = PRODUCT_DEFINITION_FORMATION_WITH_SPECIFIED_SOURCE ( 'ANY', '', #160, .NOT_KNOWN. ) ;
#76 =( NAMED_UNIT ( * ) SI_UNIT ( $, .STERADIAN. ) SOLID_ANGLE_UNIT ( ) );
#77 = DIRECTION ( 'NONE',  ( 0.0000000000000000000, 1.000000000000000000, 0.0000000000000000000 ) ) ;
#78 = EDGE_LOOP ( 'NONE', ( #69 ) ) ;
#79 = APPROVAL_STATUS ( 'not_yet_approved' ) ;
#80 =( NAMED_UNIT ( * ) PLANE_ANGLE_UNIT ( ) SI_UNIT ( $, .RADIAN. ) );
#81 = AXIS2_PLACEMENT_3D ( 'NONE', #58, #98, #181 ) ;
#82 = DIRECTION ( 'NONE',  ( -3.491481338843133355E-15, 1.224646799147353207E-16, -1.000000000000000000 ) ) ;
#83 = DIRECTION ( 'NONE',  ( -3.491481338843133355E-15, 1.224646799147353207E-16, -1.000000000000000000 ) ) ;
#84 = ADVANCED_FACE ( 'NONE', ( #161, #240 ), #138, .T. ) ;
#85 = DIRECTION ( 'NONE',  ( 0.0000000000000000000, 1.000000000000000000, 0.0000000000000000000 ) ) ;
#86 = DIRECTION ( 'NONE',  ( -3.491481338843133355E-15, 1.224646799147353207E-16, -1.000000000000000000 ) ) ;
#87 = CC_DESIGN_PERSON_AND_ORGANIZATION_ASSIGNMENT ( #25, #143, ( #75 ) ) ;
#88 = AXIS2_PLACEMENT_3D ( 'NONE', #7, #95, #204 ) ;
#89 = DIRECTION ( 'NONE',  ( -3.491481338843133355E-15, 1.224646799147353207E-16, -1.000000000000000000 ) ) ;
#90 = PERSON ( 'UNSPECIFIED', 'UNSPECIFIED', 'UNSPECIFIED', ('UNSPECIFIED'), ('UNSPECIFIED'), ('UNSPECIFIED') ) ;
#91 = DIRECTION ( 'NONE',  ( -3.491481338843133355E-15, 1.224646799147353207E-16, -1.000000000000000000 ) ) ;
#92 = FACE_OUTER_BOUND ( 'NONE', #165, .T. ) ;
#93 = AXIS2_PLACEMENT_3D ( 'NONE', #139, #89, #40 ) ;
#94 = PERSON_AND_ORGANIZATION_ROLE ( 'design_owner' ) ;
#95 = DIRECTION ( 'NONE',  ( 0.0000000000000000000, 0.0000000000000000000, 1.000000000000000000 ) ) ;
#96 = AXIS2_PLACEMENT_3D ( 'NONE', #48, #121, #28 ) ;
#97 = COORDINATED_UNIVERSAL_TIME_OFFSET ( 1, 0, .AHEAD. ) ;
#98 = DIRECTION ( 'NONE',  ( 3.491481338843133355E-15, -1.224646799147353207E-16, 1.000000000000000000 ) ) ;
#99 = CARTESIAN_POINT ( 'NONE',  ( 1.955229549752154679E-13, 0.9999999999999985567, 56.00000000000000000 ) ) ;
#100 = CIRCLE ( 'NONE', #93, 1.693999999999999950 ) ;
#101 = DIRECTION ( 'NONE',  ( 4.275831445896959482E-31, 1.000000000000000000, 1.224646799147353454E-16 ) ) ;
#102 = CIRCLE ( 'NONE', #9, 1.250000000000005329 ) ;
#103 = CARTESIAN_POINT ( 'NONE',  ( 7.251468262107710862E-14, 1.249999999999993339, 20.76903055856059765 ) ) ;
#104 = SECURITY_CLASSIFICATION ( '', '', #149 ) ;
#105 = EDGE_LOOP ( 'NONE', ( #215 ) ) ;
#106 = FACE_OUTER_BOUND ( 'NONE', #78, .T. ) ;
#107 = ORIENTED_EDGE ( 'NONE', *, *, #209, .T. ) ;
#108 = CIRCLE ( 'NONE', #46, 1.444000000000000394 ) ;
#109 = DATE_AND_TIME ( #243, #207 ) ;
#110 = PERSON_AND_ORGANIZATION ( #90, #118 ) ;
#111 = DIRECTION ( 'NONE',  ( -3.491481338843133355E-15, 1.224646799147353207E-16, -1.000000000000000000 ) ) ;
#112 = FACE_BOUND ( 'NONE', #141, .T. ) ;
#113 = ADVANCED_FACE ( 'NONE', ( #116, #173 ), #208, .T. ) ;
#114 = CALENDAR_DATE ( 2021, 30, 11 ) ;
#115 = DESIGN_CONTEXT ( 'detailed design', #132, 'design' ) ;
#116 = FACE_OUTER_BOUND ( 'NONE', #52, .T. ) ;
#117 = APPROVAL_DATE_TIME ( #135, #214 ) ;
#118 = ORGANIZATION ( 'UNSPECIFIED', 'UNSPECIFIED', '' ) ;
#119 = DIRECTION ( 'NONE',  ( -3.491481338843133355E-15, 1.224646799147353207E-16, -1.000000000000000000 ) ) ;
#120 = APPLICATION_CONTEXT ( 'configuration controlled 3d designs of mechanical parts and assemblies' ) ;
#121 = DIRECTION ( 'NONE',  ( 3.491481338843133355E-15, -1.224646799147353207E-16, 1.000000000000000000 ) ) ;
#122 = CIRCLE ( 'NONE', #67, 1.249999999999996003 ) ;
#123 = FACE_BOUND ( 'NONE', #126, .T. ) ;
#124 = CONICAL_SURFACE ( 'NONE', #218, 1.249999999999996003, 0.5235987755982919323 ) ;
#125 = PLANE ( 'NONE',  #54 ) ;
#126 = EDGE_LOOP ( 'NONE', ( #150 ) ) ;
#127 = APPROVAL_DATE_TIME ( #39, #180 ) ;
#128 = CIRCLE ( 'NONE', #157, 1.693999999999999950 ) ;
#129 = COORDINATED_UNIVERSAL_TIME_OFFSET ( 1, 0, .AHEAD. ) ;
#130 = PRODUCT_DEFINITION ( 'UNKNOWN', '', #75, #115 ) ;
#131 = ORIENTED_EDGE ( 'NONE', *, *, #236, .F. ) ;
#132 = APPLICATION_CONTEXT ( 'configuration controlled 3d designs of mechanical parts and assemblies' ) ;
#133 = ORIENTED_EDGE ( 'NONE', *, *, #26, .T. ) ;
#134 = APPROVAL_PERSON_ORGANIZATION ( #62, #214, #8 ) ;
#135 = DATE_AND_TIME ( #114, #175 ) ;
#136 = ADVANCED_FACE ( 'NONE', ( #156 ), #154, .F. ) ;
#137 = AXIS2_PLACEMENT_3D ( 'NONE', #66, #70, #49 ) ;
#138 = CYLINDRICAL_SURFACE ( 'NONE', #232, 1.693999999999998840 ) ;
#139 = CARTESIAN_POINT ( 'NONE',  ( 6.982962677686265448E-14, -2.449293598294706119E-15, 19.99999999999999645 ) ) ;
#140 = CC_DESIGN_APPROVAL ( #171, ( #75 ) ) ;
#141 = EDGE_LOOP ( 'NONE', ( #217 ) ) ;
#142 = DIRECTION ( 'NONE',  ( 4.275831445896958607E-31, 1.000000000000000000, 1.224646799147353207E-16 ) ) ;
#143 = PERSON_AND_ORGANIZATION_ROLE ( 'creator' ) ;
#144 = CARTESIAN_POINT ( 'NONE',  ( 1.955229549752154679E-13, 7.498798913309223722E-33, 56.00000000000000000 ) ) ;
#145 = LOCAL_TIME ( 14, 8, 23.00000000000000000, #97 ) ;
#146 = EDGE_CURVE ( 'NONE', #229, #229, #32, .T. ) ;
#147 = PERSON_AND_ORGANIZATION ( #90, #118 ) ;
#148 = EDGE_LOOP ( 'NONE', ( #199 ) ) ;
#149 = SECURITY_CLASSIFICATION_LEVEL ( 'unclassified' ) ;
#150 = ORIENTED_EDGE ( 'NONE', *, *, #228, .F. ) ;
#151 = PERSON_AND_ORGANIZATION ( #90, #118 ) ;
#152 = ADVANCED_FACE ( 'NONE', ( #123, #106 ), #212, .T. ) ;
#153 = CC_DESIGN_PERSON_AND_ORGANIZATION_ASSIGNMENT ( #151, #5, ( #130 ) ) ;
#154 = PLANE ( 'NONE',  #96 ) ;
#155 = VERTEX_POINT ( 'NONE', #65 ) ;
#156 = FACE_OUTER_BOUND ( 'NONE', #148, .T. ) ;
#157 = AXIS2_PLACEMENT_3D ( 'NONE', #23, #18, #187 ) ;
#158 = FACE_OUTER_BOUND ( 'NONE', #219, .T. ) ;
#159 = EDGE_LOOP ( 'NONE', ( #131 ) ) ;
#160 = PRODUCT ( '969413', '969413', '', ( #74 ) ) ;
#161 = FACE_OUTER_BOUND ( 'NONE', #14, .T. ) ;
#162 = APPROVAL_PERSON_ORGANIZATION ( #167, #180, #206 ) ;
#163 = APPLICATION_PROTOCOL_DEFINITION ( 'international standard', 'config_control_design', 1994, #120 ) ;
#164 = CARTESIAN_POINT ( 'NONE',  ( 6.982962677686265448E-14, 1.693999999999997508, 19.99999999999999645 ) ) ;
#165 = EDGE_LOOP ( 'NONE', ( #230 ) ) ;
#166 = CC_DESIGN_APPROVAL ( #214, ( #104 ) ) ;
#167 = PERSON_AND_ORGANIZATION ( #90, #118 ) ;
#168 = FACE_BOUND ( 'NONE', #205, .T. ) ;
#169 = CARTESIAN_POINT ( 'NONE',  ( 1.955229549752154679E-13, -6.858022075225178552E-15, 56.00000000000000000 ) ) ;
#170 = DATE_TIME_ROLE ( 'classification_date' ) ;
#171 = APPROVAL ( #79, 'UNSPECIFIED' ) ;
#172 = COORDINATED_UNIVERSAL_TIME_OFFSET ( 1, 0, .AHEAD. ) ;
#173 = FACE_OUTER_BOUND ( 'NONE', #105, .T. ) ;
#174 = APPROVAL_STATUS ( 'not_yet_approved' ) ;
#175 = LOCAL_TIME ( 14, 8, 23.00000000000000000, #172 ) ;
#176 = ADVANCED_FACE ( 'NONE', ( #198 ), #57, .F. ) ;
#177 = EDGE_LOOP ( 'NONE', ( #43 ) ) ;
#178 = CC_DESIGN_APPROVAL ( #180, ( #130 ) ) ;
#179 = PLANE ( 'NONE',  #81 ) ;
#180 = APPROVAL ( #1, 'UNSPECIFIED' ) ;
#181 = DIRECTION ( 'NONE',  ( -4.275831445896958607E-31, -1.000000000000000000, -1.224646799147353207E-16 ) ) ;
#182 = APPROVAL_DATE_TIME ( #109, #171 ) ;
#183 = PRODUCT_RELATED_PRODUCT_CATEGORY ( 'detail', '', ( #160 ) ) ;
#184 = VERTEX_POINT ( 'NONE', #201 ) ;
#185 = COORDINATED_UNIVERSAL_TIME_OFFSET ( 1, 0, .AHEAD. ) ;
#186 = CARTESIAN_POINT ( 'NONE',  ( 6.982962677686265448E-14, 4.375876758112993897E-31, 19.99999999999999645 ) ) ;
#187 = DIRECTION ( 'NONE',  ( 0.0000000000000000000, 1.000000000000000000, 0.0000000000000000000 ) ) ;
#188 = EDGE_LOOP ( 'NONE', ( #107 ) ) ;
#189 = AXIS2_PLACEMENT_3D ( 'NONE', #237, #213, #197 ) ;
#190 = APPROVAL_ROLE ( '' ) ;
#191 = SHAPE_DEFINITION_REPRESENTATION ( #31, #3 ) ;
#192 = EDGE_CURVE ( 'NONE', #42, #42, #122, .T. ) ;
#193 = DIRECTION ( 'NONE',  ( -3.491481338843133355E-15, 1.224646799147353207E-16, -1.000000000000000000 ) ) ;
#194 = CARTESIAN_POINT ( 'NONE',  ( 6.982962677686265448E-14, 1.693999999999997508, 19.99999999999999645 ) ) ;
#195 = VERTEX_POINT ( 'NONE', #164 ) ;
#196 = AXIS2_PLACEMENT_3D ( 'NONE', #11, #193, #85 ) ;
#197 = DIRECTION ( 'NONE',  ( 4.547650399969867329E-31, 1.000000000000000000, 1.280049790419723850E-16 ) ) ;
#198 = FACE_OUTER_BOUND ( 'NONE', #159, .T. ) ;
#199 = ORIENTED_EDGE ( 'NONE', *, *, #228, .T. ) ;
#200 = CALENDAR_DATE ( 2021, 30, 11 ) ;
#201 = CARTESIAN_POINT ( 'NONE',  ( 1.135641495829896858E-30, 1.444000000000000394, 3.252606517456513302E-16 ) ) ;
#202 = DIRECTION ( 'NONE',  ( 0.0000000000000000000, 1.000000000000000000, 0.0000000000000000000 ) ) ;
#203 = MANIFOLD_SOLID_BREP ( 'Corps-Déplacer/Copier1[1]', #223 ) ;
#204 = DIRECTION ( 'NONE',  ( 1.000000000000000000, 0.0000000000000000000, 0.0000000000000000000 ) ) ;
#205 = EDGE_LOOP ( 'NONE', ( #239 ) ) ;
#206 = APPROVAL_ROLE ( '' ) ;
#207 = LOCAL_TIME ( 14, 8, 23.00000000000000000, #129 ) ;
#208 = CYLINDRICAL_SURFACE ( 'NONE', #29, 1.250000000000000666 ) ;
#209 = EDGE_CURVE ( 'NONE', #195, #195, #128, .T. ) ;
#210 = APPROVAL_PERSON_ORGANIZATION ( #53, #171, #190 ) ;
#211 = VERTEX_POINT ( 'NONE', #194 ) ;
#212 = CONICAL_SURFACE ( 'NONE', #137, 1.693999999999997508, 0.7853981633974432830 ) ;
#213 = DIRECTION ( 'NONE',  ( -3.491481338843133355E-15, 1.224646799147353207E-16, -1.000000000000000000 ) ) ;
#214 = APPROVAL ( #174, 'UNSPECIFIED' ) ;
#215 = ORIENTED_EDGE ( 'NONE', *, *, #21, .T. ) ;
#216 = CC_DESIGN_PERSON_AND_ORGANIZATION_ASSIGNMENT ( #72, #94, ( #160 ) ) ;
#217 = ORIENTED_EDGE ( 'NONE', *, *, #236, .T. ) ;
#218 = AXIS2_PLACEMENT_3D ( 'NONE', #234, #82, #64 ) ;
#219 = EDGE_LOOP ( 'NONE', ( #133 ) ) ;
#220 = ADVANCED_FACE ( 'NONE', ( #92, #168 ), #124, .T. ) ;
#221 = CALENDAR_DATE ( 2021, 30, 11 ) ;
#222 = CC_DESIGN_DATE_AND_TIME_ASSIGNMENT ( #55, #36, ( #130 ) ) ;
#223 = CLOSED_SHELL ( 'NONE', ( #37, #220, #113, #30, #176 ) ) ;
#224 = CARTESIAN_POINT ( 'NONE',  ( 7.251468262107710862E-14, -2.543472679493480106E-15, 20.76903055856059765 ) ) ;
#225 = PERSON_AND_ORGANIZATION_ROLE ( 'classification_officer' ) ;
#226 = ORIENTED_EDGE ( 'NONE', *, *, #21, .F. ) ;
#227 = APPLICATION_PROTOCOL_DEFINITION ( 'international standard', 'config_control_design', 1994, #132 ) ;
#228 = EDGE_CURVE ( 'NONE', #184, #184, #108, .T. ) ;
#229 = VERTEX_POINT ( 'NONE', #60 ) ;
#230 = ORIENTED_EDGE ( 'NONE', *, *, #26, .F. ) ;
#231 = PERSON_AND_ORGANIZATION_ROLE ( 'design_supplier' ) ;
#232 = AXIS2_PLACEMENT_3D ( 'NONE', #22, #83, #101 ) ;
#233 = UNCERTAINTY_MEASURE_WITH_UNIT (LENGTH_MEASURE( 1.000000000000000082E-05 ), #59, 'distance_accuracy_value', 'NONE');
#234 = CARTESIAN_POINT ( 'NONE',  ( 7.251468262107710862E-14, -2.543472679493480106E-15, 20.76903055856059765 ) ) ;
#235 = CC_DESIGN_SECURITY_CLASSIFICATION ( #104, ( #75 ) ) ;
#236 = EDGE_CURVE ( 'NONE', #33, #33, #19, .T. ) ;
#237 = CARTESIAN_POINT ( 'NONE',  ( 8.728703347107827472E-16, -3.061616997868381169E-17, 0.2499999999999998335 ) ) ;
#238 = DIRECTION ( 'NONE',  ( 3.491481338843133355E-15, -1.224646799147353207E-16, 1.000000000000000000 ) ) ;
#239 = ORIENTED_EDGE ( 'NONE', *, *, #192, .T. ) ;
#240 = FACE_OUTER_BOUND ( 'NONE', #188, .T. ) ;
#241 = AXIS2_PLACEMENT_3D ( 'NONE', #144, #73, #142 ) ;
#242 = CC_DESIGN_PERSON_AND_ORGANIZATION_ASSIGNMENT ( #147, #225, ( #104 ) ) ;
#243 = CALENDAR_DATE ( 2021, 30, 11 ) ;
ENDSEC;
END-ISO-10303-21;
