ISO-10303-21;
HEADER;
FILE_DESCRIPTION (( 'STEP AP203' ),
    '1' );
FILE_NAME ('969412.step',
    '2021-11-30T13:08:23',
    ( '' ),
    ( '' ),
    'SwSTEP 2.0',
    'SolidWorks 2019',
    '' );
FILE_SCHEMA (( 'CONFIG_CONTROL_DESIGN' ));
ENDSEC;

DATA;
#1 = PERSON_AND_ORGANIZATION ( #234, #97 ) ;
#2 = AXIS2_PLACEMENT_3D ( 'NONE', #84, #235, #189 ) ;
#3 = DIRECTION ( 'NONE',  ( 4.275831445896958607E-31, 1.000000000000000000, 1.224646799147353207E-16 ) ) ;
#4 = FACE_OUTER_BOUND ( 'NONE', #156, .T. ) ;
#5 = APPROVAL_STATUS ( 'not_yet_approved' ) ;
#6 = ORIENTED_EDGE ( 'NONE', *, *, #127, .F. ) ;
#7 = CARTESIAN_POINT ( 'NONE',  ( 7.242397127498880242E-14, 1.249999999999993339, 20.74304979644706748 ) ) ;
#8 = PLANE ( 'NONE',  #147 ) ;
#9 = EDGE_LOOP ( 'NONE', ( #176 ) ) ;
#10 = ADVANCED_FACE ( 'NONE', ( #148, #34 ), #57, .T. ) ;
#11 = CC_DESIGN_APPROVAL ( #48, ( #107 ) ) ;
#12 = APPROVAL ( #238, 'UNSPECIFIED' ) ;
#13 = EDGE_LOOP ( 'NONE', ( #161 ) ) ;
#14 = CALENDAR_DATE ( 2021, 30, 11 ) ;
#15 = FACE_BOUND ( 'NONE', #183, .T. ) ;
#16 = EDGE_CURVE ( 'NONE', #65, #65, #194, .T. ) ;
#17 = DIRECTION ( 'NONE',  ( 4.275831445896957731E-31, 1.000000000000000000, 1.224646799147353454E-16 ) ) ;
#18 = PERSON_AND_ORGANIZATION_ROLE ( 'creator' ) ;
#19 = DIRECTION ( 'NONE',  ( 0.0000000000000000000, 1.000000000000000000, 0.0000000000000000000 ) ) ;
#20 = COORDINATED_UNIVERSAL_TIME_OFFSET ( 1, 0, .AHEAD. ) ;
#21 = DIRECTION ( 'NONE',  ( -3.491481338843133355E-15, 1.224646799147353207E-16, -1.000000000000000000 ) ) ;
#22 = FACE_OUTER_BOUND ( 'NONE', #13, .T. ) ;
#23 = APPROVAL_PERSON_ORGANIZATION ( #92, #12, #220 ) ;
#24 = ORIENTED_EDGE ( 'NONE', *, *, #218, .F. ) ;
#25 = AXIS2_PLACEMENT_3D ( 'NONE', #59, #86, #237 ) ;
#26 = EDGE_LOOP ( 'NONE', ( #178 ) ) ;
#27 = CARTESIAN_POINT ( 'NONE',  ( 7.242397127498880242E-14, -2.540290953777305762E-15, 20.74304979644706748 ) ) ;
#28 = EDGE_LOOP ( 'NONE', ( #68 ) ) ;
#29 = APPLICATION_PROTOCOL_DEFINITION ( 'international standard', 'config_control_design', 1994, #36 ) ;
#30 = AXIS2_PLACEMENT_3D ( 'NONE', #160, #99, #145 ) ;
#31 = ORIENTED_EDGE ( 'NONE', *, *, #135, .T. ) ;
#32 = COORDINATED_UNIVERSAL_TIME_OFFSET ( 1, 0, .AHEAD. ) ;
#33 = CC_DESIGN_APPROVAL ( #45, ( #180 ) ) ;
#34 = FACE_OUTER_BOUND ( 'NONE', #73, .T. ) ;
#35 = DIRECTION ( 'NONE',  ( 0.0000000000000000000, 0.0000000000000000000, 1.000000000000000000 ) ) ;
#36 = APPLICATION_CONTEXT ( 'configuration controlled 3d designs of mechanical parts and assemblies' ) ;
#37 = ADVANCED_FACE ( 'NONE', ( #53 ), #131, .F. ) ;
#38 = EDGE_CURVE ( 'NONE', #46, #46, #198, .T. ) ;
#39 = MANIFOLD_SOLID_BREP ( 'Corps-Déplacer/Copier1[1]', #138 ) ;
#40 = CIRCLE ( 'NONE', #177, 1.000000000000005551 ) ;
#41 = CARTESIAN_POINT ( 'NONE',  ( 6.982962677686266711E-14, 1.678999999999999826, 20.00000000000000000 ) ) ;
#42 = AXIS2_PLACEMENT_3D ( 'NONE', #104, #211, #193 ) ;
#43 = CALENDAR_DATE ( 2021, 30, 11 ) ;
#44 = CC_DESIGN_PERSON_AND_ORGANIZATION_ASSIGNMENT ( #1, #18, ( #52 ) ) ;
#45 = APPROVAL ( #94, 'UNSPECIFIED' ) ;
#46 = VERTEX_POINT ( 'NONE', #124 ) ;
#47 = DIRECTION ( 'NONE',  ( -3.491481338843133355E-15, 1.224646799147353207E-16, -1.000000000000000000 ) ) ;
#48 = APPROVAL ( #5, 'UNSPECIFIED' ) ;
#49 = CONICAL_SURFACE ( 'NONE', #185, 1.249999999999996003, 0.5235987755982943748 ) ;
#50 = DIRECTION ( 'NONE',  ( -4.275831445896958607E-31, -1.000000000000000000, -1.224646799147353207E-16 ) ) ;
#51 = MECHANICAL_CONTEXT ( 'NONE', #200, 'mechanical' ) ;
#52 = PRODUCT_DEFINITION_FORMATION_WITH_SPECIFIED_SOURCE ( 'ANY', '', #83, .NOT_KNOWN. ) ;
#53 = FACE_OUTER_BOUND ( 'NONE', #26, .T. ) ;
#54 =( LENGTH_UNIT ( ) NAMED_UNIT ( * ) SI_UNIT ( .MILLI., .METRE. ) );
#55 =( NAMED_UNIT ( * ) PLANE_ANGLE_UNIT ( ) SI_UNIT ( $, .RADIAN. ) );
#56 = APPROVAL_PERSON_ORGANIZATION ( #231, #48, #66 ) ;
#57 = CYLINDRICAL_SURFACE ( 'NONE', #61, 1.250000000000000666 ) ;
#58 = EDGE_LOOP ( 'NONE', ( #144 ) ) ;
#59 = CARTESIAN_POINT ( 'NONE',  ( 6.982962677686266711E-14, -2.449293598294706513E-15, 20.00000000000000000 ) ) ;
#60 = FACE_BOUND ( 'NONE', #239, .T. ) ;
#61 = AXIS2_PLACEMENT_3D ( 'NONE', #74, #134, #17 ) ;
#62 = CIRCLE ( 'NONE', #25, 1.679000000000002268 ) ;
#63 = VERTEX_POINT ( 'NONE', #88 ) ;
#64 = DIRECTION ( 'NONE',  ( 3.491481338843133355E-15, -1.224646799147353207E-16, 1.000000000000000000 ) ) ;
#65 = VERTEX_POINT ( 'NONE', #228 ) ;
#66 = APPROVAL_ROLE ( '' ) ;
#67 = VERTEX_POINT ( 'NONE', #216 ) ;
#68 = ORIENTED_EDGE ( 'NONE', *, *, #188, .T. ) ;
#69 = CARTESIAN_POINT ( 'NONE',  ( 1.955229549752154679E-13, -6.858022075225178552E-15, 56.00000000000000000 ) ) ;
#70 = DATE_TIME_ROLE ( 'creation_date' ) ;
#71 = CIRCLE ( 'NONE', #80, 1.429000000000000492 ) ;
#72 = DIRECTION ( 'NONE',  ( 3.491481338843133355E-15, -1.224646799147353207E-16, 1.000000000000000000 ) ) ;
#73 = EDGE_LOOP ( 'NONE', ( #143 ) ) ;
#74 = CARTESIAN_POINT ( 'NONE',  ( 0.0000000000000000000, 0.0000000000000000000, 0.0000000000000000000 ) ) ;
#75 = CARTESIAN_POINT ( 'NONE',  ( 8.728703347107827472E-16, -3.061616997868381169E-17, 0.2499999999999998335 ) ) ;
#76 = CIRCLE ( 'NONE', #2, 1.249999999999996003 ) ;
#77 = AXIS2_PLACEMENT_3D ( 'NONE', #130, #35, #162 ) ;
#78 = DIRECTION ( 'NONE',  ( 4.275831445896958607E-31, 1.000000000000000000, 1.224646799147353207E-16 ) ) ;
#79 = ADVANCED_FACE ( 'NONE', ( #137 ), #208, .T. ) ;
#80 = AXIS2_PLACEMENT_3D ( 'NONE', #132, #205, #78 ) ;
#81 = LOCAL_TIME ( 14, 8, 23.00000000000000000, #20 ) ;
#82 = DIRECTION ( 'NONE',  ( -4.588278604853456391E-31, -1.000000000000000000, -1.291485613443127841E-16 ) ) ;
#83 = PRODUCT ( '969412', '969412', '', ( #51 ) ) ;
#84 = CARTESIAN_POINT ( 'NONE',  ( 7.242397127498880242E-14, -2.540290953777305762E-15, 20.74304979644706748 ) ) ;
#85 = CALENDAR_DATE ( 2021, 30, 11 ) ;
#86 = DIRECTION ( 'NONE',  ( -3.491481338843133355E-15, 1.224646799147353207E-16, -1.000000000000000000 ) ) ;
#87 = ORIENTED_EDGE ( 'NONE', *, *, #38, .T. ) ;
#88 = CARTESIAN_POINT ( 'NONE',  ( 6.982962677686266711E-14, 1.678999999999999826, 20.00000000000000000 ) ) ;
#89 = PLANE ( 'NONE',  #126 ) ;
#90 = CYLINDRICAL_SURFACE ( 'NONE', #30, 1.678999999999999826 ) ;
#91 = COORDINATED_UNIVERSAL_TIME_OFFSET ( 1, 0, .AHEAD. ) ;
#92 = PERSON_AND_ORGANIZATION ( #234, #97 ) ;
#93 = ADVANCED_FACE ( 'NONE', ( #22, #4 ), #90, .T. ) ;
#94 = APPROVAL_STATUS ( 'not_yet_approved' ) ;
#95 = EDGE_LOOP ( 'NONE', ( #87 ) ) ;
#96 = APPROVAL_ROLE ( '' ) ;
#97 = ORGANIZATION ( 'UNSPECIFIED', 'UNSPECIFIED', '' ) ;
#98 = PERSON_AND_ORGANIZATION ( #234, #97 ) ;
#99 = DIRECTION ( 'NONE',  ( -3.491481338843133355E-15, 1.224646799147353207E-16, -1.000000000000000000 ) ) ;
#100 = AXIS2_PLACEMENT_3D ( 'NONE', #150, #151, #224 ) ;
#101 = FACE_OUTER_BOUND ( 'NONE', #95, .T. ) ;
#102 = DESIGN_CONTEXT ( 'detailed design', #36, 'design' ) ;
#103 = CARTESIAN_POINT ( 'NONE',  ( 6.982962677686266711E-14, 1.259048337544627486E-32, 20.00000000000000000 ) ) ;
#104 = CARTESIAN_POINT ( 'NONE',  ( 6.982962677686266711E-14, 1.259048337544627486E-32, 20.00000000000000000 ) ) ;
#105 = DATE_AND_TIME ( #85, #81 ) ;
#106 = CC_DESIGN_PERSON_AND_ORGANIZATION_ASSIGNMENT ( #240, #204, ( #180 ) ) ;
#107 = SECURITY_CLASSIFICATION ( '', '', #192 ) ;
#108 = PERSON_AND_ORGANIZATION ( #234, #97 ) ;
#109 = DIRECTION ( 'NONE',  ( -3.491481338843133355E-15, 1.224646799147353207E-16, -1.000000000000000000 ) ) ;
#110 = ORIENTED_EDGE ( 'NONE', *, *, #127, .T. ) ;
#111 = CONICAL_SURFACE ( 'NONE', #209, 1.000000000000005551, 0.7853981633974473908 ) ;
#112 = PRODUCT_DEFINITION_SHAPE ( 'NONE', 'NONE',  #180 ) ;
#113 = CC_DESIGN_PERSON_AND_ORGANIZATION_ASSIGNMENT ( #98, #115, ( #83 ) ) ;
#114 = APPROVAL_DATE_TIME ( #236, #45 ) ;
#115 = PERSON_AND_ORGANIZATION_ROLE ( 'design_owner' ) ;
#116 = LOCAL_TIME ( 14, 8, 23.00000000000000000, #91 ) ;
#117 = CARTESIAN_POINT ( 'NONE',  ( 1.946500846405046877E-13, -6.827405905246494765E-15, 55.75000000000000000 ) ) ;
#118 = CARTESIAN_POINT ( 'NONE',  ( 4.515861737439267153E-31, -1.583951075614061161E-32, 1.293394206980224659E-16 ) ) ;
#119 = LOCAL_TIME ( 14, 8, 23.00000000000000000, #155 ) ;
#120 = FACE_OUTER_BOUND ( 'NONE', #58, .T. ) ;
#121 = MANIFOLD_SOLID_BREP ( 'Corps-Déplacer/Copier1[2]', #242 ) ;
#122 = FACE_OUTER_BOUND ( 'NONE', #28, .T. ) ;
#123 = DATE_AND_TIME ( #43, #119 ) ;
#124 = CARTESIAN_POINT ( 'NONE',  ( 8.728703347107835360E-16, 1.678999999999997828, 0.2500000000000000555 ) ) ;
#125 = FACE_OUTER_BOUND ( 'NONE', #201, .T. ) ;
#126 = AXIS2_PLACEMENT_3D ( 'NONE', #118, #72, #50 ) ;
#127 = EDGE_CURVE ( 'NONE', #196, #196, #76, .T. ) ;
#128 = EDGE_LOOP ( 'NONE', ( #6 ) ) ;
#129 =( NAMED_UNIT ( * ) SI_UNIT ( $, .STERADIAN. ) SOLID_ANGLE_UNIT ( ) );
#130 = CARTESIAN_POINT ( 'NONE',  ( 0.0000000000000000000, 0.0000000000000000000, 0.0000000000000000000 ) ) ;
#131 = PLANE ( 'NONE',  #221 ) ;
#132 = CARTESIAN_POINT ( 'NONE',  ( 9.031723474878534307E-31, -3.167902151228122322E-32, 2.586788413960449317E-16 ) ) ;
#133 = PRODUCT_RELATED_PRODUCT_CATEGORY ( 'detail', '', ( #83 ) ) ;
#134 = DIRECTION ( 'NONE',  ( -3.491481338843133355E-15, 1.224646799147353207E-16, -1.000000000000000000 ) ) ;
#135 = EDGE_CURVE ( 'NONE', #63, #63, #62, .T. ) ;
#136 = ADVANCED_FACE ( 'NONE', ( #213 ), #8, .F. ) ;
#137 = FACE_OUTER_BOUND ( 'NONE', #9, .T. ) ;
#138 = CLOSED_SHELL ( 'NONE', ( #37, #158, #10, #229, #136 ) ) ;
#139 = ADVANCED_BREP_SHAPE_REPRESENTATION ( '969412', ( #39, #121, #77 ), #195 ) ;
#140 = APPROVAL_PERSON_ORGANIZATION ( #184, #45, #96 ) ;
#141 = DIRECTION ( 'NONE',  ( -4.275831445896958607E-31, -1.000000000000000000, -1.224646799147353207E-16 ) ) ;
#142 = PERSON_AND_ORGANIZATION ( #234, #97 ) ;
#143 = ORIENTED_EDGE ( 'NONE', *, *, #16, .T. ) ;
#144 = ORIENTED_EDGE ( 'NONE', *, *, #16, .F. ) ;
#145 = DIRECTION ( 'NONE',  ( 4.275831445896958607E-31, 1.000000000000000000, 1.224646799147353207E-16 ) ) ;
#146 = APPLICATION_PROTOCOL_DEFINITION ( 'international standard', 'config_control_design', 1994, #200 ) ;
#147 = AXIS2_PLACEMENT_3D ( 'NONE', #159, #47, #3 ) ;
#148 = FACE_OUTER_BOUND ( 'NONE', #128, .T. ) ;
#149 = AXIS2_PLACEMENT_3D ( 'NONE', #190, #152, #225 ) ;
#150 = CARTESIAN_POINT ( 'NONE',  ( 6.982962677686266711E-14, -2.449293598294706513E-15, 20.00000000000000000 ) ) ;
#151 = DIRECTION ( 'NONE',  ( -3.491481338843133355E-15, 1.224646799147353207E-16, -1.000000000000000000 ) ) ;
#152 = DIRECTION ( 'NONE',  ( -3.491481338843133355E-15, 1.224646799147353207E-16, -1.000000000000000000 ) ) ;
#153 = FACE_BOUND ( 'NONE', #168, .T. ) ;
#154 = APPROVAL_DATE_TIME ( #105, #48 ) ;
#155 = COORDINATED_UNIVERSAL_TIME_OFFSET ( 1, 0, .AHEAD. ) ;
#156 = EDGE_LOOP ( 'NONE', ( #31 ) ) ;
#157 = VERTEX_POINT ( 'NONE', #232 ) ;
#158 = ADVANCED_FACE ( 'NONE', ( #125, #153 ), #49, .T. ) ;
#159 = CARTESIAN_POINT ( 'NONE',  ( 1.955229549752154679E-13, 7.498798913309223722E-33, 56.00000000000000000 ) ) ;
#160 = CARTESIAN_POINT ( 'NONE',  ( 0.0000000000000000000, 0.0000000000000000000, 0.0000000000000000000 ) ) ;
#161 = ORIENTED_EDGE ( 'NONE', *, *, #38, .F. ) ;
#162 = DIRECTION ( 'NONE',  ( 1.000000000000000000, 0.0000000000000000000, 0.0000000000000000000 ) ) ;
#163 = CALENDAR_DATE ( 2021, 30, 11 ) ;
#164 = CONICAL_SURFACE ( 'NONE', #226, 1.678999999999997828, 0.7853981633974435050 ) ;
#165 = EDGE_LOOP ( 'NONE', ( #215 ) ) ;
#166 = ADVANCED_FACE ( 'NONE', ( #122 ), #89, .F. ) ;
#167 = CC_DESIGN_PERSON_AND_ORGANIZATION_ASSIGNMENT ( #108, #212, ( #107 ) ) ;
#168 = EDGE_LOOP ( 'NONE', ( #110 ) ) ;
#169 = DATE_AND_TIME ( #14, #223 ) ;
#170 = CC_DESIGN_APPROVAL ( #12, ( #52 ) ) ;
#171 = DIRECTION ( 'NONE',  ( 0.0000000000000000000, 1.000000000000000000, 0.0000000000000000000 ) ) ;
#172 = CC_DESIGN_PERSON_AND_ORGANIZATION_ASSIGNMENT ( #142, #227, ( #52 ) ) ;
#173 = DATE_TIME_ROLE ( 'classification_date' ) ;
#174 = DIRECTION ( 'NONE',  ( 0.0000000000000000000, 1.000000000000000000, 0.0000000000000000000 ) ) ;
#175 = EDGE_CURVE ( 'NONE', #157, #157, #40, .T. ) ;
#176 = ORIENTED_EDGE ( 'NONE', *, *, #135, .F. ) ;
#177 = AXIS2_PLACEMENT_3D ( 'NONE', #69, #217, #202 ) ;
#178 = ORIENTED_EDGE ( 'NONE', *, *, #218, .T. ) ;
#179 = CALENDAR_DATE ( 2021, 30, 11 ) ;
#180 = PRODUCT_DEFINITION ( 'UNKNOWN', '', #52, #102 ) ;
#181 = CC_DESIGN_DATE_AND_TIME_ASSIGNMENT ( #182, #70, ( #180 ) ) ;
#182 = DATE_AND_TIME ( #179, #233 ) ;
#183 = EDGE_LOOP ( 'NONE', ( #219 ) ) ;
#184 = PERSON_AND_ORGANIZATION ( #234, #97 ) ;
#185 = AXIS2_PLACEMENT_3D ( 'NONE', #27, #109, #174 ) ;
#186 = UNCERTAINTY_MEASURE_WITH_UNIT (LENGTH_MEASURE( 1.000000000000000082E-05 ), #54, 'distance_accuracy_value', 'NONE');
#187 = ORIENTED_EDGE ( 'NONE', *, *, #175, .T. ) ;
#188 = EDGE_CURVE ( 'NONE', #67, #67, #71, .T. ) ;
#189 = DIRECTION ( 'NONE',  ( 0.0000000000000000000, 1.000000000000000000, 0.0000000000000000000 ) ) ;
#190 = CARTESIAN_POINT ( 'NONE',  ( 8.728703347107827472E-16, -3.061616997868381169E-17, 0.2499999999999998335 ) ) ;
#191 = CARTESIAN_POINT ( 'NONE',  ( 1.955229549752154679E-13, -6.858022075225178552E-15, 56.00000000000000000 ) ) ;
#192 = SECURITY_CLASSIFICATION_LEVEL ( 'unclassified' ) ;
#193 = DIRECTION ( 'NONE',  ( -4.275831445896958607E-31, -1.000000000000000000, -1.224646799147353207E-16 ) ) ;
#194 = CIRCLE ( 'NONE', #243, 1.250000000000005329 ) ;
#195 =( GEOMETRIC_REPRESENTATION_CONTEXT ( 3 ) GLOBAL_UNCERTAINTY_ASSIGNED_CONTEXT ( ( #186 ) ) GLOBAL_UNIT_ASSIGNED_CONTEXT ( ( #54, #55, #129 ) ) REPRESENTATION_CONTEXT ( 'NONE', 'WORKASPACE' ) );
#196 = VERTEX_POINT ( 'NONE', #7 ) ;
#197 = VERTEX_POINT ( 'NONE', #41 ) ;
#198 = CIRCLE ( 'NONE', #149, 1.678999999999997828 ) ;
#199 = CIRCLE ( 'NONE', #100, 1.679000000000002268 ) ;
#200 = APPLICATION_CONTEXT ( 'configuration controlled 3d designs of mechanical parts and assemblies' ) ;
#201 = EDGE_LOOP ( 'NONE', ( #24 ) ) ;
#202 = DIRECTION ( 'NONE',  ( 0.0000000000000000000, 1.000000000000000000, 0.0000000000000000000 ) ) ;
#203 = DIRECTION ( 'NONE',  ( 3.491481338843133355E-15, -1.224646799147353207E-16, 1.000000000000000000 ) ) ;
#204 = PERSON_AND_ORGANIZATION_ROLE ( 'creator' ) ;
#205 = DIRECTION ( 'NONE',  ( -3.491481338843133355E-15, 1.224646799147353207E-16, -1.000000000000000000 ) ) ;
#206 = CC_DESIGN_SECURITY_CLASSIFICATION ( #107, ( #52 ) ) ;
#207 = APPROVAL_DATE_TIME ( #169, #12 ) ;
#208 = PLANE ( 'NONE',  #42 ) ;
#209 = AXIS2_PLACEMENT_3D ( 'NONE', #191, #21, #171 ) ;
#210 = COORDINATED_UNIVERSAL_TIME_OFFSET ( 1, 0, .AHEAD. ) ;
#211 = DIRECTION ( 'NONE',  ( 3.491481338843133355E-15, -1.224646799147353207E-16, 1.000000000000000000 ) ) ;
#212 = PERSON_AND_ORGANIZATION_ROLE ( 'classification_officer' ) ;
#213 = FACE_OUTER_BOUND ( 'NONE', #165, .T. ) ;
#214 = CC_DESIGN_DATE_AND_TIME_ASSIGNMENT ( #123, #173, ( #107 ) ) ;
#215 = ORIENTED_EDGE ( 'NONE', *, *, #175, .F. ) ;
#216 = CARTESIAN_POINT ( 'NONE',  ( 1.514188661106529085E-30, 1.429000000000000492, 4.336808689942017736E-16 ) ) ;
#217 = DIRECTION ( 'NONE',  ( -3.491481338843133355E-15, 1.224646799147353207E-16, -1.000000000000000000 ) ) ;
#218 = EDGE_CURVE ( 'NONE', #197, #197, #199, .T. ) ;
#219 = ORIENTED_EDGE ( 'NONE', *, *, #188, .F. ) ;
#220 = APPROVAL_ROLE ( '' ) ;
#221 = AXIS2_PLACEMENT_3D ( 'NONE', #103, #203, #141 ) ;
#222 = DIRECTION ( 'NONE',  ( -3.491481338843133355E-15, 1.224646799147353207E-16, -1.000000000000000000 ) ) ;
#223 = LOCAL_TIME ( 14, 8, 23.00000000000000000, #210 ) ;
#224 = DIRECTION ( 'NONE',  ( 0.0000000000000000000, 1.000000000000000000, 0.0000000000000000000 ) ) ;
#225 = DIRECTION ( 'NONE',  ( 4.588278604853456391E-31, 1.000000000000000000, 1.291485613443127841E-16 ) ) ;
#226 = AXIS2_PLACEMENT_3D ( 'NONE', #75, #64, #82 ) ;
#227 = PERSON_AND_ORGANIZATION_ROLE ( 'design_supplier' ) ;
#228 = CARTESIAN_POINT ( 'NONE',  ( 1.946500846405046877E-13, 1.249999999999998446, 55.75000000000000000 ) ) ;
#229 = ADVANCED_FACE ( 'NONE', ( #120, #60 ), #111, .T. ) ;
#230 = SHAPE_DEFINITION_REPRESENTATION ( #112, #139 ) ;
#231 = PERSON_AND_ORGANIZATION ( #234, #97 ) ;
#232 = CARTESIAN_POINT ( 'NONE',  ( 1.955229549752154679E-13, 0.9999999999999985567, 56.00000000000000000 ) ) ;
#233 = LOCAL_TIME ( 14, 8, 23.00000000000000000, #32 ) ;
#234 = PERSON ( 'UNSPECIFIED', 'UNSPECIFIED', 'UNSPECIFIED', ('UNSPECIFIED'), ('UNSPECIFIED'), ('UNSPECIFIED') ) ;
#235 = DIRECTION ( 'NONE',  ( -3.491481338843133355E-15, 1.224646799147353207E-16, -1.000000000000000000 ) ) ;
#236 = DATE_AND_TIME ( #163, #116 ) ;
#237 = DIRECTION ( 'NONE',  ( 0.0000000000000000000, 1.000000000000000000, 0.0000000000000000000 ) ) ;
#238 = APPROVAL_STATUS ( 'not_yet_approved' ) ;
#239 = EDGE_LOOP ( 'NONE', ( #187 ) ) ;
#240 = PERSON_AND_ORGANIZATION ( #234, #97 ) ;
#241 = ADVANCED_FACE ( 'NONE', ( #15, #101 ), #164, .T. ) ;
#242 = CLOSED_SHELL ( 'NONE', ( #166, #241, #93, #79 ) ) ;
#243 = AXIS2_PLACEMENT_3D ( 'NONE', #117, #222, #19 ) ;
ENDSEC;
END-ISO-10303-21;
