ISO-10303-21;
HEADER;
FILE_DESCRIPTION (( 'STEP AP203' ),
    '1' );
FILE_NAME ('969411.step',
    '2021-11-30T13:08:22',
    ( '' ),
    ( '' ),
    'SwSTEP 2.0',
    'SolidWorks 2019',
    '' );
FILE_SCHEMA (( 'CONFIG_CONTROL_DESIGN' ));
ENDSEC;

DATA;
#1 = PERSON ( 'UNSPECIFIED', 'UNSPECIFIED', 'UNSPECIFIED', ('UNSPECIFIED'), ('UNSPECIFIED'), ('UNSPECIFIED') ) ;
#2 = PERSON_AND_ORGANIZATION ( #1, #124 ) ;
#3 = AXIS2_PLACEMENT_3D ( 'NONE', #224, #87, #158 ) ;
#4 = APPROVAL_DATE_TIME ( #111, #92 ) ;
#5 = DIRECTION ( 'NONE',  ( -4.275831445896958607E-31, -1.000000000000000000, -1.224646799147353207E-16 ) ) ;
#6 = CONICAL_SURFACE ( 'NONE', #112, 1.658999999999997810, 0.7853981633974430610 ) ;
#7 = ADVANCED_FACE ( 'NONE', ( #217, #190 ), #117, .T. ) ;
#8 = CC_DESIGN_PERSON_AND_ORGANIZATION_ASSIGNMENT ( #57, #205, ( #167 ) ) ;
#9 = CARTESIAN_POINT ( 'NONE',  ( 0.0000000000000000000, 0.0000000000000000000, 0.0000000000000000000 ) ) ;
#10 = EDGE_LOOP ( 'NONE', ( #115 ) ) ;
#11 = ORIENTED_EDGE ( 'NONE', *, *, #148, .F. ) ;
#12 = CC_DESIGN_APPROVAL ( #202, ( #39 ) ) ;
#13 = EDGE_LOOP ( 'NONE', ( #22 ) ) ;
#14 = EDGE_CURVE ( 'NONE', #143, #143, #38, .T. ) ;
#15 = PLANE ( 'NONE',  #208 ) ;
#16 =( LENGTH_UNIT ( ) NAMED_UNIT ( * ) SI_UNIT ( .MILLI., .METRE. ) );
#17 = FACE_OUTER_BOUND ( 'NONE', #141, .T. ) ;
#18 = VERTEX_POINT ( 'NONE', #102 ) ;
#19 = APPLICATION_CONTEXT ( 'configuration controlled 3d designs of mechanical parts and assemblies' ) ;
#20 = PLANE ( 'NONE',  #55 ) ;
#21 = APPROVAL_ROLE ( '' ) ;
#22 = ORIENTED_EDGE ( 'NONE', *, *, #127, .F. ) ;
#23 = COORDINATED_UNIVERSAL_TIME_OFFSET ( 1, 0, .AHEAD. ) ;
#24 = FACE_OUTER_BOUND ( 'NONE', #82, .T. ) ;
#25 = DIRECTION ( 'NONE',  ( 3.491481338843133355E-15, -1.224646799147353207E-16, 1.000000000000000000 ) ) ;
#26 = LOCAL_TIME ( 14, 8, 22.00000000000000000, #163 ) ;
#27 = FACE_OUTER_BOUND ( 'NONE', #150, .T. ) ;
#28 = EDGE_LOOP ( 'NONE', ( #79 ) ) ;
#29 = ORIENTED_EDGE ( 'NONE', *, *, #34, .F. ) ;
#30 = ADVANCED_FACE ( 'NONE', ( #27, #48 ), #153, .T. ) ;
#31 = CIRCLE ( 'NONE', #63, 1.409000000000000474 ) ;
#32 = VERTEX_POINT ( 'NONE', #160 ) ;
#33 = CARTESIAN_POINT ( 'NONE',  ( 7.570943305532645426E-31, 1.409000000000000474, 2.168404344971008868E-16 ) ) ;
#34 = EDGE_CURVE ( 'NONE', #18, #18, #162, .T. ) ;
#35 = CC_DESIGN_PERSON_AND_ORGANIZATION_ASSIGNMENT ( #207, #209, ( #214 ) ) ;
#36 = AXIS2_PLACEMENT_3D ( 'NONE', #44, #25, #97 ) ;
#37 = PERSON_AND_ORGANIZATION ( #1, #124 ) ;
#38 = CIRCLE ( 'NONE', #77, 1.658999999999997810 ) ;
#39 = SECURITY_CLASSIFICATION ( '', '', #130 ) ;
#40 = EDGE_LOOP ( 'NONE', ( #138 ) ) ;
#41 = APPROVAL_STATUS ( 'not_yet_approved' ) ;
#42 = CC_DESIGN_DATE_AND_TIME_ASSIGNMENT ( #73, #182, ( #167 ) ) ;
#43 = AXIS2_PLACEMENT_3D ( 'NONE', #149, #72, #229 ) ;
#44 = CARTESIAN_POINT ( 'NONE',  ( 6.982962677686266711E-14, 1.244050739718008253E-32, 20.00000000000000000 ) ) ;
#45 = PERSON_AND_ORGANIZATION ( #1, #124 ) ;
#46 = PLANE ( 'NONE',  #36 ) ;
#47 = APPLICATION_CONTEXT ( 'configuration controlled 3d designs of mechanical parts and assemblies' ) ;
#48 = FACE_OUTER_BOUND ( 'NONE', #28, .T. ) ;
#49 = AXIS2_PLACEMENT_3D ( 'NONE', #191, #152, #120 ) ;
#50 = EDGE_LOOP ( 'NONE', ( #78 ) ) ;
#51 = DIRECTION ( 'NONE',  ( 4.643592391530412310E-31, 1.000000000000000000, 1.307055060259802203E-16 ) ) ;
#52 = AXIS2_PLACEMENT_3D ( 'NONE', #59, #139, #213 ) ;
#53 = VERTEX_POINT ( 'NONE', #33 ) ;
#54 = CARTESIAN_POINT ( 'NONE',  ( 6.982962677686266711E-14, 1.244050739718008253E-32, 20.00000000000000000 ) ) ;
#55 = AXIS2_PLACEMENT_3D ( 'NONE', #84, #74, #5 ) ;
#56 = PERSON_AND_ORGANIZATION_ROLE ( 'design_supplier' ) ;
#57 = PERSON_AND_ORGANIZATION ( #1, #124 ) ;
#58 = DATE_AND_TIME ( #170, #67 ) ;
#59 = CARTESIAN_POINT ( 'NONE',  ( 1.955229549752154679E-13, -6.858022075225178552E-15, 56.00000000000000000 ) ) ;
#60 = FACE_BOUND ( 'NONE', #13, .T. ) ;
#61 = EDGE_LOOP ( 'NONE', ( #140 ) ) ;
#62 = DIRECTION ( 'NONE',  ( -3.491481338843133355E-15, 1.224646799147353207E-16, -1.000000000000000000 ) ) ;
#63 = AXIS2_PLACEMENT_3D ( 'NONE', #169, #132, #201 ) ;
#64 = DESIGN_CONTEXT ( 'detailed design', #19, 'design' ) ;
#65 = FACE_OUTER_BOUND ( 'NONE', #134, .T. ) ;
#66 = DIRECTION ( 'NONE',  ( -3.491481338843133355E-15, 1.224646799147353207E-16, -1.000000000000000000 ) ) ;
#67 = LOCAL_TIME ( 14, 8, 22.00000000000000000, #193 ) ;
#68 = AXIS2_PLACEMENT_3D ( 'NONE', #242, #66, #198 ) ;
#69 = APPROVAL_STATUS ( 'not_yet_approved' ) ;
#70 = ADVANCED_FACE ( 'NONE', ( #116, #210 ), #156, .T. ) ;
#71 = COORDINATED_UNIVERSAL_TIME_OFFSET ( 1, 0, .AHEAD. ) ;
#72 = DIRECTION ( 'NONE',  ( -3.491481338843133355E-15, 1.224646799147353207E-16, -1.000000000000000000 ) ) ;
#73 = DATE_AND_TIME ( #186, #199 ) ;
#74 = DIRECTION ( 'NONE',  ( 3.491481338843133355E-15, -1.224646799147353207E-16, 1.000000000000000000 ) ) ;
#75 = ADVANCED_FACE ( 'NONE', ( #60, #24 ), #6, .T. ) ;
#76 = CC_DESIGN_DATE_AND_TIME_ASSIGNMENT ( #58, #230, ( #39 ) ) ;
#77 = AXIS2_PLACEMENT_3D ( 'NONE', #168, #85, #51 ) ;
#78 = ORIENTED_EDGE ( 'NONE', *, *, #178, .T. ) ;
#79 = ORIENTED_EDGE ( 'NONE', *, *, #148, .T. ) ;
#80 = APPROVAL_STATUS ( 'not_yet_approved' ) ;
#81 = CALENDAR_DATE ( 2021, 30, 11 ) ;
#82 = EDGE_LOOP ( 'NONE', ( #185 ) ) ;
#83 = APPROVAL_DATE_TIME ( #119, #95 ) ;
#84 = CARTESIAN_POINT ( 'NONE',  ( 7.731483991319144164E-32, -2.711839532777004262E-33, 2.214385024861937913E-17 ) ) ;
#85 = DIRECTION ( 'NONE',  ( -3.491481338843133355E-15, 1.224646799147353207E-16, -1.000000000000000000 ) ) ;
#86 = AXIS2_PLACEMENT_3D ( 'NONE', #200, #91, #203 ) ;
#87 = DIRECTION ( 'NONE',  ( 0.0000000000000000000, 0.0000000000000000000, 1.000000000000000000 ) ) ;
#88 =( NAMED_UNIT ( * ) PLANE_ANGLE_UNIT ( ) SI_UNIT ( $, .RADIAN. ) );
#89 = MANIFOLD_SOLID_BREP ( 'Corps-Déplacer/Copier1[1]', #232 ) ;
#90 = VERTEX_POINT ( 'NONE', #175 ) ;
#91 = DIRECTION ( 'NONE',  ( -3.491481338843133355E-15, 1.224646799147353207E-16, -1.000000000000000000 ) ) ;
#92 = APPROVAL ( #41, 'UNSPECIFIED' ) ;
#93 = PRODUCT_DEFINITION_SHAPE ( 'NONE', 'NONE',  #167 ) ;
#94 = LOCAL_TIME ( 14, 8, 22.00000000000000000, #23 ) ;
#95 = APPROVAL ( #69, 'UNSPECIFIED' ) ;
#96 = CARTESIAN_POINT ( 'NONE',  ( 1.955229549752154679E-13, -6.858022075225178552E-15, 56.00000000000000000 ) ) ;
#97 = DIRECTION ( 'NONE',  ( -4.275831445896958607E-31, -1.000000000000000000, -1.224646799147353207E-16 ) ) ;
#98 = CC_DESIGN_SECURITY_CLASSIFICATION ( #39, ( #214 ) ) ;
#99 = CARTESIAN_POINT ( 'NONE',  ( 8.728703347107827472E-16, -3.061616997868381169E-17, 0.2499999999999998335 ) ) ;
#100 = UNCERTAINTY_MEASURE_WITH_UNIT (LENGTH_MEASURE( 1.000000000000000082E-05 ), #16, 'distance_accuracy_value', 'NONE');
#101 = COORDINATED_UNIVERSAL_TIME_OFFSET ( 1, 0, .AHEAD. ) ;
#102 = CARTESIAN_POINT ( 'NONE',  ( 6.982962677686266711E-14, 1.658999999999998920, 20.00000000000000000 ) ) ;
#103 = ORIENTED_EDGE ( 'NONE', *, *, #235, .F. ) ;
#104 =( GEOMETRIC_REPRESENTATION_CONTEXT ( 3 ) GLOBAL_UNCERTAINTY_ASSIGNED_CONTEXT ( ( #100 ) ) GLOBAL_UNIT_ASSIGNED_CONTEXT ( ( #16, #88, #126 ) ) REPRESENTATION_CONTEXT ( 'NONE', 'WORKASPACE' ) );
#105 = PERSON_AND_ORGANIZATION_ROLE ( 'design_owner' ) ;
#106 = VERTEX_POINT ( 'NONE', #177 ) ;
#107 = AXIS2_PLACEMENT_3D ( 'NONE', #96, #216, #239 ) ;
#108 = APPROVAL_PERSON_ORGANIZATION ( #166, #202, #236 ) ;
#109 = DIRECTION ( 'NONE',  ( -4.275831445896958607E-31, -1.000000000000000000, -1.224646799147353207E-16 ) ) ;
#110 = CC_DESIGN_PERSON_AND_ORGANIZATION_ASSIGNMENT ( #161, #212, ( #39 ) ) ;
#111 = DATE_AND_TIME ( #228, #26 ) ;
#112 = AXIS2_PLACEMENT_3D ( 'NONE', #99, #211, #171 ) ;
#113 = AXIS2_PLACEMENT_3D ( 'NONE', #131, #181, #240 ) ;
#114 = EDGE_CURVE ( 'NONE', #197, #197, #179, .T. ) ;
#115 = ORIENTED_EDGE ( 'NONE', *, *, #114, .T. ) ;
#116 = FACE_OUTER_BOUND ( 'NONE', #234, .T. ) ;
#117 = CONICAL_SURFACE ( 'NONE', #52, 1.000000000000005551, 0.7853981633974473908 ) ;
#118 = DIRECTION ( 'NONE',  ( 4.275831445896958607E-31, 1.000000000000000000, 1.224646799147353207E-16 ) ) ;
#119 = DATE_AND_TIME ( #81, #155 ) ;
#120 = DIRECTION ( 'NONE',  ( 4.275831445896957731E-31, 1.000000000000000000, 1.224646799147353454E-16 ) ) ;
#121 = DIRECTION ( 'NONE',  ( -3.491481338843133355E-15, 1.224646799147353207E-16, -1.000000000000000000 ) ) ;
#122 = ADVANCED_BREP_SHAPE_REPRESENTATION ( '969411', ( #89, #164, #3 ), #104 ) ;
#123 = PERSON_AND_ORGANIZATION ( #1, #124 ) ;
#124 = ORGANIZATION ( 'UNSPECIFIED', 'UNSPECIFIED', '' ) ;
#125 = ADVANCED_FACE ( 'NONE', ( #65 ), #46, .F. ) ;
#126 =( NAMED_UNIT ( * ) SI_UNIT ( $, .STERADIAN. ) SOLID_ANGLE_UNIT ( ) );
#127 = EDGE_CURVE ( 'NONE', #53, #53, #31, .T. ) ;
#128 = FACE_BOUND ( 'NONE', #50, .T. ) ;
#129 = AXIS2_PLACEMENT_3D ( 'NONE', #146, #180, #223 ) ;
#130 = SECURITY_CLASSIFICATION_LEVEL ( 'unclassified' ) ;
#131 = CARTESIAN_POINT ( 'NONE',  ( 6.982962677686266711E-14, -2.449293598294706513E-15, 20.00000000000000000 ) ) ;
#132 = DIRECTION ( 'NONE',  ( -3.491481338843133355E-15, 1.224646799147353207E-16, -1.000000000000000000 ) ) ;
#133 = FACE_OUTER_BOUND ( 'NONE', #195, .T. ) ;
#134 = EDGE_LOOP ( 'NONE', ( #192 ) ) ;
#135 = FACE_OUTER_BOUND ( 'NONE', #204, .T. ) ;
#136 = CALENDAR_DATE ( 2021, 30, 11 ) ;
#137 = DATE_AND_TIME ( #136, #94 ) ;
#138 = ORIENTED_EDGE ( 'NONE', *, *, #127, .T. ) ;
#139 = DIRECTION ( 'NONE',  ( -3.491481338843133355E-15, 1.224646799147353207E-16, -1.000000000000000000 ) ) ;
#140 = ORIENTED_EDGE ( 'NONE', *, *, #235, .T. ) ;
#141 = EDGE_LOOP ( 'NONE', ( #103 ) ) ;
#142 = DIRECTION ( 'NONE',  ( 3.491481338843133355E-15, -1.224646799147353207E-16, 1.000000000000000000 ) ) ;
#143 = VERTEX_POINT ( 'NONE', #145 ) ;
#144 = CC_DESIGN_APPROVAL ( #92, ( #167 ) ) ;
#145 = CARTESIAN_POINT ( 'NONE',  ( 8.728703347107835360E-16, 1.658999999999997810, 0.2500000000000000555 ) ) ;
#146 = CARTESIAN_POINT ( 'NONE',  ( 1.946500846405046877E-13, -6.827405905246494765E-15, 55.75000000000000000 ) ) ;
#147 = APPLICATION_PROTOCOL_DEFINITION ( 'international standard', 'config_control_design', 1994, #19 ) ;
#148 = EDGE_CURVE ( 'NONE', #90, #90, #238, .T. ) ;
#149 = CARTESIAN_POINT ( 'NONE',  ( 7.230302281353767700E-14, -2.536048652822405980E-15, 20.70840878029568799 ) ) ;
#150 = EDGE_LOOP ( 'NONE', ( #173 ) ) ;
#151 = APPROVAL_ROLE ( '' ) ;
#152 = DIRECTION ( 'NONE',  ( -3.491481338843133355E-15, 1.224646799147353207E-16, -1.000000000000000000 ) ) ;
#153 = CYLINDRICAL_SURFACE ( 'NONE', #49, 1.250000000000000666 ) ;
#154 = CLOSED_SHELL ( 'NONE', ( #165, #75, #70, #226 ) ) ;
#155 = LOCAL_TIME ( 14, 8, 22.00000000000000000, #101 ) ;
#156 = CYLINDRICAL_SURFACE ( 'NONE', #227, 1.658999999999999364 ) ;
#157 = ADVANCED_FACE ( 'NONE', ( #133, #128 ), #187, .T. ) ;
#158 = DIRECTION ( 'NONE',  ( 1.000000000000000000, 0.0000000000000000000, 0.0000000000000000000 ) ) ;
#159 = APPLICATION_PROTOCOL_DEFINITION ( 'international standard', 'config_control_design', 1994, #47 ) ;
#160 = CARTESIAN_POINT ( 'NONE',  ( 7.230302281353767700E-14, 1.249999999999993339, 20.70840878029568799 ) ) ;
#161 = PERSON_AND_ORGANIZATION ( #1, #124 ) ;
#162 = CIRCLE ( 'NONE', #220, 1.659000000000001362 ) ;
#163 = COORDINATED_UNIVERSAL_TIME_OFFSET ( 1, 0, .AHEAD. ) ;
#164 = MANIFOLD_SOLID_BREP ( 'Corps-Déplacer/Copier1[2]', #154 ) ;
#165 = ADVANCED_FACE ( 'NONE', ( #183 ), #20, .F. ) ;
#166 = PERSON_AND_ORGANIZATION ( #1, #124 ) ;
#167 = PRODUCT_DEFINITION ( 'UNKNOWN', '', #214, #64 ) ;
#168 = CARTESIAN_POINT ( 'NONE',  ( 8.728703347107827472E-16, -3.061616997868381169E-17, 0.2499999999999998335 ) ) ;
#169 = CARTESIAN_POINT ( 'NONE',  ( 1.546296798263828833E-31, -5.423679065554008524E-33, 4.428770049723875826E-17 ) ) ;
#170 = CALENDAR_DATE ( 2021, 30, 11 ) ;
#171 = DIRECTION ( 'NONE',  ( -4.643592391530412310E-31, -1.000000000000000000, -1.307055060259802203E-16 ) ) ;
#172 = CC_DESIGN_PERSON_AND_ORGANIZATION_ASSIGNMENT ( #123, #105, ( #189 ) ) ;
#173 = ORIENTED_EDGE ( 'NONE', *, *, #178, .F. ) ;
#174 = PRODUCT_RELATED_PRODUCT_CATEGORY ( 'detail', '', ( #189 ) ) ;
#175 = CARTESIAN_POINT ( 'NONE',  ( 1.946500846405046877E-13, 1.249999999999998446, 55.75000000000000000 ) ) ;
#176 = EDGE_LOOP ( 'NONE', ( #11 ) ) ;
#177 = CARTESIAN_POINT ( 'NONE',  ( 6.982962677686266711E-14, 1.658999999999998920, 20.00000000000000000 ) ) ;
#178 = EDGE_CURVE ( 'NONE', #32, #32, #225, .T. ) ;
#179 = CIRCLE ( 'NONE', #107, 1.000000000000005551 ) ;
#180 = DIRECTION ( 'NONE',  ( -3.491481338843133355E-15, 1.224646799147353207E-16, -1.000000000000000000 ) ) ;
#181 = DIRECTION ( 'NONE',  ( -3.491481338843133355E-15, 1.224646799147353207E-16, -1.000000000000000000 ) ) ;
#182 = DATE_TIME_ROLE ( 'creation_date' ) ;
#183 = FACE_OUTER_BOUND ( 'NONE', #40, .T. ) ;
#184 = APPROVAL_PERSON_ORGANIZATION ( #37, #92, #21 ) ;
#185 = ORIENTED_EDGE ( 'NONE', *, *, #14, .T. ) ;
#186 = CALENDAR_DATE ( 2021, 30, 11 ) ;
#187 = CONICAL_SURFACE ( 'NONE', #86, 1.249999999999996003, 0.5235987755982951519 ) ;
#188 = SHAPE_DEFINITION_REPRESENTATION ( #93, #122 ) ;
#189 = PRODUCT ( '969411', '969411', '', ( #218 ) ) ;
#190 = FACE_BOUND ( 'NONE', #10, .T. ) ;
#191 = CARTESIAN_POINT ( 'NONE',  ( 0.0000000000000000000, 0.0000000000000000000, 0.0000000000000000000 ) ) ;
#192 = ORIENTED_EDGE ( 'NONE', *, *, #34, .T. ) ;
#193 = COORDINATED_UNIVERSAL_TIME_OFFSET ( 1, 0, .AHEAD. ) ;
#194 = ORIENTED_EDGE ( 'NONE', *, *, #114, .F. ) ;
#195 = EDGE_LOOP ( 'NONE', ( #29 ) ) ;
#196 = CIRCLE ( 'NONE', #113, 1.659000000000001362 ) ;
#197 = VERTEX_POINT ( 'NONE', #219 ) ;
#198 = DIRECTION ( 'NONE',  ( 4.275831445896958607E-31, 1.000000000000000000, 1.224646799147353207E-16 ) ) ;
#199 = LOCAL_TIME ( 14, 8, 22.00000000000000000, #71 ) ;
#200 = CARTESIAN_POINT ( 'NONE',  ( 7.230302281353767700E-14, -2.536048652822405980E-15, 20.70840878029568799 ) ) ;
#201 = DIRECTION ( 'NONE',  ( 4.275831445896958607E-31, 1.000000000000000000, 1.224646799147353207E-16 ) ) ;
#202 = APPROVAL ( #80, 'UNSPECIFIED' ) ;
#203 = DIRECTION ( 'NONE',  ( 0.0000000000000000000, 1.000000000000000000, 0.0000000000000000000 ) ) ;
#204 = EDGE_LOOP ( 'NONE', ( #194 ) ) ;
#205 = PERSON_AND_ORGANIZATION_ROLE ( 'creator' ) ;
#206 = APPROVAL_DATE_TIME ( #137, #202 ) ;
#207 = PERSON_AND_ORGANIZATION ( #1, #124 ) ;
#208 = AXIS2_PLACEMENT_3D ( 'NONE', #54, #142, #109 ) ;
#209 = PERSON_AND_ORGANIZATION_ROLE ( 'creator' ) ;
#210 = FACE_OUTER_BOUND ( 'NONE', #61, .T. ) ;
#211 = DIRECTION ( 'NONE',  ( 3.491481338843133355E-15, -1.224646799147353207E-16, 1.000000000000000000 ) ) ;
#212 = PERSON_AND_ORGANIZATION_ROLE ( 'classification_officer' ) ;
#213 = DIRECTION ( 'NONE',  ( 0.0000000000000000000, 1.000000000000000000, 0.0000000000000000000 ) ) ;
#214 = PRODUCT_DEFINITION_FORMATION_WITH_SPECIFIED_SOURCE ( 'ANY', '', #189, .NOT_KNOWN. ) ;
#215 = ADVANCED_FACE ( 'NONE', ( #135 ), #222, .F. ) ;
#216 = DIRECTION ( 'NONE',  ( -3.491481338843133355E-15, 1.224646799147353207E-16, -1.000000000000000000 ) ) ;
#217 = FACE_OUTER_BOUND ( 'NONE', #176, .T. ) ;
#218 = MECHANICAL_CONTEXT ( 'NONE', #47, 'mechanical' ) ;
#219 = CARTESIAN_POINT ( 'NONE',  ( 1.955229549752154679E-13, 0.9999999999999985567, 56.00000000000000000 ) ) ;
#220 = AXIS2_PLACEMENT_3D ( 'NONE', #237, #121, #233 ) ;
#221 = CC_DESIGN_APPROVAL ( #95, ( #214 ) ) ;
#222 = PLANE ( 'NONE',  #68 ) ;
#223 = DIRECTION ( 'NONE',  ( 0.0000000000000000000, 1.000000000000000000, 0.0000000000000000000 ) ) ;
#224 = CARTESIAN_POINT ( 'NONE',  ( 0.0000000000000000000, 0.0000000000000000000, 0.0000000000000000000 ) ) ;
#225 = CIRCLE ( 'NONE', #43, 1.249999999999996003 ) ;
#226 = ADVANCED_FACE ( 'NONE', ( #17 ), #15, .T. ) ;
#227 = AXIS2_PLACEMENT_3D ( 'NONE', #9, #62, #118 ) ;
#228 = CALENDAR_DATE ( 2021, 30, 11 ) ;
#229 = DIRECTION ( 'NONE',  ( 0.0000000000000000000, 1.000000000000000000, 0.0000000000000000000 ) ) ;
#230 = DATE_TIME_ROLE ( 'classification_date' ) ;
#231 = ORIENTED_EDGE ( 'NONE', *, *, #14, .F. ) ;
#232 = CLOSED_SHELL ( 'NONE', ( #125, #157, #30, #7, #215 ) ) ;
#233 = DIRECTION ( 'NONE',  ( 0.0000000000000000000, 1.000000000000000000, 0.0000000000000000000 ) ) ;
#234 = EDGE_LOOP ( 'NONE', ( #231 ) ) ;
#235 = EDGE_CURVE ( 'NONE', #106, #106, #196, .T. ) ;
#236 = APPROVAL_ROLE ( '' ) ;
#237 = CARTESIAN_POINT ( 'NONE',  ( 6.982962677686266711E-14, -2.449293598294706513E-15, 20.00000000000000000 ) ) ;
#238 = CIRCLE ( 'NONE', #129, 1.250000000000005329 ) ;
#239 = DIRECTION ( 'NONE',  ( 0.0000000000000000000, 1.000000000000000000, 0.0000000000000000000 ) ) ;
#240 = DIRECTION ( 'NONE',  ( 0.0000000000000000000, 1.000000000000000000, 0.0000000000000000000 ) ) ;
#241 = CC_DESIGN_PERSON_AND_ORGANIZATION_ASSIGNMENT ( #45, #56, ( #214 ) ) ;
#242 = CARTESIAN_POINT ( 'NONE',  ( 1.955229549752154679E-13, 7.498798913309223722E-33, 56.00000000000000000 ) ) ;
#243 = APPROVAL_PERSON_ORGANIZATION ( #2, #95, #151 ) ;
ENDSEC;
END-ISO-10303-21;
