ISO-10303-21;
HEADER;
FILE_DESCRIPTION (( 'STEP AP203' ),
    '1' );
FILE_NAME ('969410.step',
    '2021-11-30T13:08:22',
    ( '' ),
    ( '' ),
    'SwSTEP 2.0',
    'SolidWorks 2019',
    '' );
FILE_SCHEMA (( 'CONFIG_CONTROL_DESIGN' ));
ENDSEC;

DATA;
#1 = APPLICATION_CONTEXT ( 'configuration controlled 3d designs of mechanical parts and assemblies' ) ;
#2 = EDGE_LOOP ( 'NONE', ( #3 ) ) ;
#3 = ORIENTED_EDGE ( 'NONE', *, *, #178, .F. ) ;
#4 = AXIS2_PLACEMENT_3D ( 'NONE', #66, #108, #70 ) ;
#5 = EDGE_LOOP ( 'NONE', ( #153 ) ) ;
#6 = EDGE_CURVE ( 'NONE', #223, #223, #84, .T. ) ;
#7 = FACE_OUTER_BOUND ( 'NONE', #197, .T. ) ;
#8 = FACE_OUTER_BOUND ( 'NONE', #171, .T. ) ;
#9 = ADVANCED_FACE ( 'NONE', ( #127 ), #65, .F. ) ;
#10 = FACE_OUTER_BOUND ( 'NONE', #61, .T. ) ;
#11 = DATE_AND_TIME ( #110, #189 ) ;
#12 = CARTESIAN_POINT ( 'NONE',  ( 1.955229549752154679E-13, 7.498798913309223722E-33, 56.00000000000000000 ) ) ;
#13 = DIRECTION ( 'NONE',  ( 3.491481338843133355E-15, -1.224646799147353207E-16, 1.000000000000000000 ) ) ;
#14 = APPROVAL_STATUS ( 'not_yet_approved' ) ;
#15 = CALENDAR_DATE ( 2021, 30, 11 ) ;
#16 = CC_DESIGN_DATE_AND_TIME_ASSIGNMENT ( #242, #220, ( #78 ) ) ;
#17 = APPLICATION_CONTEXT ( 'configuration controlled 3d designs of mechanical parts and assemblies' ) ;
#18 = CIRCLE ( 'NONE', #52, 1.249999999999996003 ) ;
#19 = DIRECTION ( 'NONE',  ( 0.0000000000000000000, 1.000000000000000000, 0.0000000000000000000 ) ) ;
#20 = AXIS2_PLACEMENT_3D ( 'NONE', #27, #13, #236 ) ;
#21 = EDGE_LOOP ( 'NONE', ( #134 ) ) ;
#22 = ORIENTED_EDGE ( 'NONE', *, *, #6, .T. ) ;
#23 = SECURITY_CLASSIFICATION ( '', '', #145 ) ;
#24 = CYLINDRICAL_SURFACE ( 'NONE', #243, 1.250000000000000666 ) ;
#25 = FACE_OUTER_BOUND ( 'NONE', #80, .T. ) ;
#26 = PERSON_AND_ORGANIZATION ( #103, #38 ) ;
#27 = CARTESIAN_POINT ( 'NONE',  ( 8.728703347107827472E-16, -3.061616997868381169E-17, 0.2499999999999998335 ) ) ;
#28 = COORDINATED_UNIVERSAL_TIME_OFFSET ( 1, 0, .AHEAD. ) ;
#29 = AXIS2_PLACEMENT_3D ( 'NONE', #179, #83, #159 ) ;
#30 = DIRECTION ( 'NONE',  ( -3.491481338843133355E-15, 1.224646799147353207E-16, -1.000000000000000000 ) ) ;
#31 = FACE_BOUND ( 'NONE', #149, .T. ) ;
#32 = PERSON_AND_ORGANIZATION ( #103, #38 ) ;
#33 = AXIS2_PLACEMENT_3D ( 'NONE', #142, #124, #114 ) ;
#34 = CC_DESIGN_PERSON_AND_ORGANIZATION_ASSIGNMENT ( #183, #141, ( #78 ) ) ;
#35 = PRODUCT ( '969410', '969410', '', ( #207 ) ) ;
#36 = EDGE_CURVE ( 'NONE', #194, #194, #98, .T. ) ;
#37 = VERTEX_POINT ( 'NONE', #96 ) ;
#38 = ORGANIZATION ( 'UNSPECIFIED', 'UNSPECIFIED', '' ) ;
#39 = EDGE_LOOP ( 'NONE', ( #100 ) ) ;
#40 =( LENGTH_UNIT ( ) NAMED_UNIT ( * ) SI_UNIT ( .MILLI., .METRE. ) );
#41 = ADVANCED_FACE ( 'NONE', ( #47, #88 ), #164, .T. ) ;
#42 = EDGE_LOOP ( 'NONE', ( #22 ) ) ;
#43 = VERTEX_POINT ( 'NONE', #150 ) ;
#44 = FACE_OUTER_BOUND ( 'NONE', #173, .T. ) ;
#45 = COORDINATED_UNIVERSAL_TIME_OFFSET ( 1, 0, .AHEAD. ) ;
#46 = COORDINATED_UNIVERSAL_TIME_OFFSET ( 1, 0, .AHEAD. ) ;
#47 = FACE_BOUND ( 'NONE', #5, .T. ) ;
#48 = AXIS2_PLACEMENT_3D ( 'NONE', #77, #168, #147 ) ;
#49 = DATE_AND_TIME ( #15, #234 ) ;
#50 = DIRECTION ( 'NONE',  ( 3.491481338843133355E-15, -1.224646799147353207E-16, 1.000000000000000000 ) ) ;
#51 = DIRECTION ( 'NONE',  ( -3.491481338843133355E-15, 1.224646799147353207E-16, -1.000000000000000000 ) ) ;
#52 = AXIS2_PLACEMENT_3D ( 'NONE', #184, #200, #111 ) ;
#53 = CC_DESIGN_APPROVAL ( #85, ( #170 ) ) ;
#54 = CARTESIAN_POINT ( 'NONE',  ( 8.728703347107835360E-16, 1.653999999999997472, 0.2500000000000000555 ) ) ;
#55 = CARTESIAN_POINT ( 'NONE',  ( 7.227278569817492089E-14, 1.249999999999993339, 20.69974852625784223 ) ) ;
#56 = CIRCLE ( 'NONE', #209, 1.654000000000001691 ) ;
#57 = LOCAL_TIME ( 14, 8, 22.00000000000000000, #45 ) ;
#58 = ORIENTED_EDGE ( 'NONE', *, *, #6, .F. ) ;
#59 = CARTESIAN_POINT ( 'NONE',  ( 1.955229549752154679E-13, 0.9999999999999985567, 56.00000000000000000 ) ) ;
#60 = CIRCLE ( 'NONE', #29, 1.000000000000005551 ) ;
#61 = EDGE_LOOP ( 'NONE', ( #133 ) ) ;
#62 = CARTESIAN_POINT ( 'NONE',  ( 1.946500846405046877E-13, 1.249999999999998446, 55.75000000000000000 ) ) ;
#63 = PLANE ( 'NONE',  #172 ) ;
#64 = AXIS2_PLACEMENT_3D ( 'NONE', #241, #215, #107 ) ;
#65 = PLANE ( 'NONE',  #208 ) ;
#66 = CARTESIAN_POINT ( 'NONE',  ( 0.0000000000000000000, 0.0000000000000000000, 0.0000000000000000000 ) ) ;
#67 = DIRECTION ( 'NONE',  ( -3.491481338843133355E-15, 1.224646799147353207E-16, -1.000000000000000000 ) ) ;
#68 = SHAPE_DEFINITION_REPRESENTATION ( #230, #158 ) ;
#69 = DIRECTION ( 'NONE',  ( 0.0000000000000000000, 1.000000000000000000, 0.0000000000000000000 ) ) ;
#70 = DIRECTION ( 'NONE',  ( 1.000000000000000000, 0.0000000000000000000, 0.0000000000000000000 ) ) ;
#71 = DESIGN_CONTEXT ( 'detailed design', #1, 'design' ) ;
#72 = PLANE ( 'NONE',  #94 ) ;
#73 = PERSON_AND_ORGANIZATION_ROLE ( 'design_supplier' ) ;
#74 = AXIS2_PLACEMENT_3D ( 'NONE', #211, #30, #90 ) ;
#75 = CC_DESIGN_SECURITY_CLASSIFICATION ( #23, ( #170 ) ) ;
#76 = VERTEX_POINT ( 'NONE', #55 ) ;
#77 = CARTESIAN_POINT ( 'NONE',  ( -1.108897848636504254E-31, 3.889490073471345954E-33, -3.176009667586899262E-17 ) ) ;
#78 = PRODUCT_DEFINITION ( 'UNKNOWN', '', #170, #71 ) ;
#79 = ORIENTED_EDGE ( 'NONE', *, *, #36, .T. ) ;
#80 = EDGE_LOOP ( 'NONE', ( #79 ) ) ;
#81 = ORIENTED_EDGE ( 'NONE', *, *, #218, .F. ) ;
#82 = DIRECTION ( 'NONE',  ( -3.491481338843133355E-15, 1.224646799147353207E-16, -1.000000000000000000 ) ) ;
#83 = DIRECTION ( 'NONE',  ( -3.491481338843133355E-15, 1.224646799147353207E-16, -1.000000000000000000 ) ) ;
#84 = CIRCLE ( 'NONE', #74, 1.653999999999997472 ) ;
#85 = APPROVAL ( #206, 'UNSPECIFIED' ) ;
#86 = APPROVAL_PERSON_ORGANIZATION ( #26, #101, #235 ) ;
#87 = CALENDAR_DATE ( 2021, 30, 11 ) ;
#88 = FACE_OUTER_BOUND ( 'NONE', #42, .T. ) ;
#89 = APPROVAL_DATE_TIME ( #11, #101 ) ;
#90 = DIRECTION ( 'NONE',  ( 4.657629853415329736E-31, 1.000000000000000000, 1.311006254516936056E-16 ) ) ;
#91 = APPLICATION_PROTOCOL_DEFINITION ( 'international standard', 'config_control_design', 1994, #17 ) ;
#92 = CC_DESIGN_PERSON_AND_ORGANIZATION_ASSIGNMENT ( #187, #212, ( #23 ) ) ;
#93 = CARTESIAN_POINT ( 'NONE',  ( 0.0000000000000000000, 0.0000000000000000000, 0.0000000000000000000 ) ) ;
#94 = AXIS2_PLACEMENT_3D ( 'NONE', #144, #221, #204 ) ;
#95 = CALENDAR_DATE ( 2021, 30, 11 ) ;
#96 = CARTESIAN_POINT ( 'NONE',  ( 6.982962677686266711E-14, 1.653999999999999249, 20.00000000000000000 ) ) ;
#97 = CC_DESIGN_PERSON_AND_ORGANIZATION_ASSIGNMENT ( #233, #137, ( #170 ) ) ;
#98 = CIRCLE ( 'NONE', #129, 1.250000000000005329 ) ;
#99 = ADVANCED_FACE ( 'NONE', ( #232, #163 ), #198, .T. ) ;
#100 = ORIENTED_EDGE ( 'NONE', *, *, #178, .T. ) ;
#101 = APPROVAL ( #14, 'UNSPECIFIED' ) ;
#102 = MANIFOLD_SOLID_BREP ( 'Corps-Déplacer/Copier1[2]', #118 ) ;
#103 = PERSON ( 'UNSPECIFIED', 'UNSPECIFIED', 'UNSPECIFIED', ('UNSPECIFIED'), ('UNSPECIFIED'), ('UNSPECIFIED') ) ;
#104 =( NAMED_UNIT ( * ) PLANE_ANGLE_UNIT ( ) SI_UNIT ( $, .RADIAN. ) );
#105 = EDGE_CURVE ( 'NONE', #37, #37, #56, .T. ) ;
#106 = DIRECTION ( 'NONE',  ( -3.491481338843133355E-15, 1.224646799147353207E-16, -1.000000000000000000 ) ) ;
#107 = DIRECTION ( 'NONE',  ( 4.275831445896958607E-31, 1.000000000000000000, 1.224646799147353207E-16 ) ) ;
#108 = DIRECTION ( 'NONE',  ( 0.0000000000000000000, 0.0000000000000000000, 1.000000000000000000 ) ) ;
#109 = DIRECTION ( 'NONE',  ( -3.491481338843133355E-15, 1.224646799147353207E-16, -1.000000000000000000 ) ) ;
#110 = CALENDAR_DATE ( 2021, 30, 11 ) ;
#111 = DIRECTION ( 'NONE',  ( 0.0000000000000000000, 1.000000000000000000, 0.0000000000000000000 ) ) ;
#112 =( NAMED_UNIT ( * ) SI_UNIT ( $, .STERADIAN. ) SOLID_ANGLE_UNIT ( ) );
#113 = UNCERTAINTY_MEASURE_WITH_UNIT (LENGTH_MEASURE( 1.000000000000000082E-05 ), #40, 'distance_accuracy_value', 'NONE');
#114 = DIRECTION ( 'NONE',  ( 0.0000000000000000000, 1.000000000000000000, 0.0000000000000000000 ) ) ;
#115 = AXIS2_PLACEMENT_3D ( 'NONE', #155, #82, #136 ) ;
#116 = EDGE_LOOP ( 'NONE', ( #151 ) ) ;
#117 = ORIENTED_EDGE ( 'NONE', *, *, #105, .T. ) ;
#118 = CLOSED_SHELL ( 'NONE', ( #227, #41, #166, #130 ) ) ;
#119 = ADVANCED_FACE ( 'NONE', ( #122, #31 ), #157, .T. ) ;
#120 = DIRECTION ( 'NONE',  ( 4.275831445896957731E-31, 1.000000000000000000, 1.224646799147353454E-16 ) ) ;
#121 = DATE_AND_TIME ( #87, #57 ) ;
#122 = FACE_OUTER_BOUND ( 'NONE', #219, .T. ) ;
#123 = PERSON_AND_ORGANIZATION ( #103, #38 ) ;
#124 = DIRECTION ( 'NONE',  ( -3.491481338843133355E-15, 1.224646799147353207E-16, -1.000000000000000000 ) ) ;
#125 = LOCAL_TIME ( 14, 8, 22.00000000000000000, #240 ) ;
#126 = DATE_AND_TIME ( #95, #229 ) ;
#127 = FACE_OUTER_BOUND ( 'NONE', #21, .T. ) ;
#128 = APPROVAL_ROLE ( '' ) ;
#129 = AXIS2_PLACEMENT_3D ( 'NONE', #202, #106, #205 ) ;
#130 = ADVANCED_FACE ( 'NONE', ( #10 ), #63, .T. ) ;
#131 = APPROVAL ( #222, 'UNSPECIFIED' ) ;
#132 = CC_DESIGN_APPROVAL ( #131, ( #78 ) ) ;
#133 = ORIENTED_EDGE ( 'NONE', *, *, #105, .F. ) ;
#134 = ORIENTED_EDGE ( 'NONE', *, *, #191, .F. ) ;
#135 = AXIS2_PLACEMENT_3D ( 'NONE', #165, #109, #199 ) ;
#136 = DIRECTION ( 'NONE',  ( 4.275831445896958607E-31, 1.000000000000000000, 1.224646799147353207E-16 ) ) ;
#137 = PERSON_AND_ORGANIZATION_ROLE ( 'creator' ) ;
#138 = DIRECTION ( 'NONE',  ( -3.491481338843133355E-15, 1.224646799147353207E-16, -1.000000000000000000 ) ) ;
#139 = PERSON_AND_ORGANIZATION_ROLE ( 'design_owner' ) ;
#140 = CYLINDRICAL_SURFACE ( 'NONE', #64, 1.653999999999999693 ) ;
#141 = PERSON_AND_ORGANIZATION_ROLE ( 'creator' ) ;
#142 = CARTESIAN_POINT ( 'NONE',  ( 1.955229549752154679E-13, -6.858022075225178552E-15, 56.00000000000000000 ) ) ;
#143 = COORDINATED_UNIVERSAL_TIME_OFFSET ( 1, 0, .AHEAD. ) ;
#144 = CARTESIAN_POINT ( 'NONE',  ( 6.982962677686266711E-14, 1.240301340261353855E-32, 20.00000000000000000 ) ) ;
#145 = SECURITY_CLASSIFICATION_LEVEL ( 'unclassified' ) ;
#146 = PRODUCT_RELATED_PRODUCT_CATEGORY ( 'detail', '', ( #35 ) ) ;
#147 = DIRECTION ( 'NONE',  ( -4.275831445896958607E-31, -1.000000000000000000, -1.224646799147353207E-16 ) ) ;
#148 = CARTESIAN_POINT ( 'NONE',  ( 6.982962677686266711E-14, -2.449293598294706513E-15, 20.00000000000000000 ) ) ;
#149 = EDGE_LOOP ( 'NONE', ( #195 ) ) ;
#150 = CARTESIAN_POINT ( 'NONE',  ( 3.785471652766323151E-31, 1.404000000000000359, 1.084202172485504434E-16 ) ) ;
#151 = ORIENTED_EDGE ( 'NONE', *, *, #185, .T. ) ;
#152 = CIRCLE ( 'NONE', #169, 1.654000000000001691 ) ;
#153 = ORIENTED_EDGE ( 'NONE', *, *, #185, .F. ) ;
#154 = ADVANCED_FACE ( 'NONE', ( #186, #25 ), #24, .T. ) ;
#155 = CARTESIAN_POINT ( 'NONE',  ( -2.217795697273008509E-31, 7.778980146942691908E-33, -6.352019335173798524E-17 ) ) ;
#156 = PERSON_AND_ORGANIZATION ( #103, #38 ) ;
#157 = CONICAL_SURFACE ( 'NONE', #33, 1.000000000000005551, 0.7853981633974473908 ) ;
#158 = ADVANCED_BREP_SHAPE_REPRESENTATION ( '969410', ( #176, #102, #4 ), #216 ) ;
#159 = DIRECTION ( 'NONE',  ( 0.0000000000000000000, 1.000000000000000000, 0.0000000000000000000 ) ) ;
#160 = APPROVAL_ROLE ( '' ) ;
#161 = DIRECTION ( 'NONE',  ( -4.275831445896958607E-31, -1.000000000000000000, -1.224646799147353207E-16 ) ) ;
#162 = APPLICATION_PROTOCOL_DEFINITION ( 'international standard', 'config_control_design', 1994, #1 ) ;
#163 = FACE_BOUND ( 'NONE', #39, .T. ) ;
#164 = CONICAL_SURFACE ( 'NONE', #20, 1.653999999999997472, 0.7853981633974428389 ) ;
#165 = CARTESIAN_POINT ( 'NONE',  ( 7.227278569817492089E-14, -2.534988077583680936E-15, 20.69974852625784223 ) ) ;
#166 = ADVANCED_FACE ( 'NONE', ( #8, #7 ), #140, .T. ) ;
#167 = FACE_OUTER_BOUND ( 'NONE', #116, .T. ) ;
#168 = DIRECTION ( 'NONE',  ( 3.491481338843133355E-15, -1.224646799147353207E-16, 1.000000000000000000 ) ) ;
#169 = AXIS2_PLACEMENT_3D ( 'NONE', #148, #51, #19 ) ;
#170 = PRODUCT_DEFINITION_FORMATION_WITH_SPECIFIED_SOURCE ( 'ANY', '', #35, .NOT_KNOWN. ) ;
#171 = EDGE_LOOP ( 'NONE', ( #58 ) ) ;
#172 = AXIS2_PLACEMENT_3D ( 'NONE', #177, #50, #161 ) ;
#173 = EDGE_LOOP ( 'NONE', ( #224 ) ) ;
#174 = ORIENTED_EDGE ( 'NONE', *, *, #36, .F. ) ;
#175 = ADVANCED_FACE ( 'NONE', ( #44 ), #72, .F. ) ;
#176 = MANIFOLD_SOLID_BREP ( 'Corps-Déplacer/Copier1[1]', #181 ) ;
#177 = CARTESIAN_POINT ( 'NONE',  ( 6.982962677686266711E-14, 1.240301340261353855E-32, 20.00000000000000000 ) ) ;
#178 = EDGE_CURVE ( 'NONE', #76, #76, #18, .T. ) ;
#179 = CARTESIAN_POINT ( 'NONE',  ( 1.955229549752154679E-13, -6.858022075225178552E-15, 56.00000000000000000 ) ) ;
#180 = APPROVAL_DATE_TIME ( #126, #131 ) ;
#181 = CLOSED_SHELL ( 'NONE', ( #175, #99, #154, #119, #9 ) ) ;
#182 = CARTESIAN_POINT ( 'NONE',  ( 6.982962677686266711E-14, -2.449293598294706513E-15, 20.00000000000000000 ) ) ;
#183 = PERSON_AND_ORGANIZATION ( #103, #38 ) ;
#184 = CARTESIAN_POINT ( 'NONE',  ( 7.227278569817492089E-14, -2.534988077583680936E-15, 20.69974852625784223 ) ) ;
#185 = EDGE_CURVE ( 'NONE', #43, #43, #228, .T. ) ;
#186 = FACE_OUTER_BOUND ( 'NONE', #2, .T. ) ;
#187 = PERSON_AND_ORGANIZATION ( #103, #38 ) ;
#188 = PLANE ( 'NONE',  #48 ) ;
#189 = LOCAL_TIME ( 14, 8, 22.00000000000000000, #28 ) ;
#190 = PERSON_AND_ORGANIZATION ( #103, #38 ) ;
#191 = EDGE_CURVE ( 'NONE', #226, #226, #60, .T. ) ;
#192 = CC_DESIGN_DATE_AND_TIME_ASSIGNMENT ( #121, #201, ( #23 ) ) ;
#193 = APPROVAL_PERSON_ORGANIZATION ( #156, #131, #160 ) ;
#194 = VERTEX_POINT ( 'NONE', #62 ) ;
#195 = ORIENTED_EDGE ( 'NONE', *, *, #191, .T. ) ;
#196 = VERTEX_POINT ( 'NONE', #231 ) ;
#197 = EDGE_LOOP ( 'NONE', ( #117 ) ) ;
#198 = CONICAL_SURFACE ( 'NONE', #135, 1.249999999999996003, 0.5235987755982948189 ) ;
#199 = DIRECTION ( 'NONE',  ( 0.0000000000000000000, 1.000000000000000000, 0.0000000000000000000 ) ) ;
#200 = DIRECTION ( 'NONE',  ( -3.491481338843133355E-15, 1.224646799147353207E-16, -1.000000000000000000 ) ) ;
#201 = DATE_TIME_ROLE ( 'classification_date' ) ;
#202 = CARTESIAN_POINT ( 'NONE',  ( 1.946500846405046877E-13, -6.827405905246494765E-15, 55.75000000000000000 ) ) ;
#203 = APPROVAL_DATE_TIME ( #49, #85 ) ;
#204 = DIRECTION ( 'NONE',  ( -4.275831445896958607E-31, -1.000000000000000000, -1.224646799147353207E-16 ) ) ;
#205 = DIRECTION ( 'NONE',  ( 0.0000000000000000000, 1.000000000000000000, 0.0000000000000000000 ) ) ;
#206 = APPROVAL_STATUS ( 'not_yet_approved' ) ;
#207 = MECHANICAL_CONTEXT ( 'NONE', #17, 'mechanical' ) ;
#208 = AXIS2_PLACEMENT_3D ( 'NONE', #12, #138, #239 ) ;
#209 = AXIS2_PLACEMENT_3D ( 'NONE', #182, #213, #69 ) ;
#210 = APPROVAL_PERSON_ORGANIZATION ( #123, #85, #128 ) ;
#211 = CARTESIAN_POINT ( 'NONE',  ( 8.728703347107827472E-16, -3.061616997868381169E-17, 0.2499999999999998335 ) ) ;
#212 = PERSON_AND_ORGANIZATION_ROLE ( 'classification_officer' ) ;
#213 = DIRECTION ( 'NONE',  ( -3.491481338843133355E-15, 1.224646799147353207E-16, -1.000000000000000000 ) ) ;
#214 = CALENDAR_DATE ( 2021, 30, 11 ) ;
#215 = DIRECTION ( 'NONE',  ( -3.491481338843133355E-15, 1.224646799147353207E-16, -1.000000000000000000 ) ) ;
#216 =( GEOMETRIC_REPRESENTATION_CONTEXT ( 3 ) GLOBAL_UNCERTAINTY_ASSIGNED_CONTEXT ( ( #113 ) ) GLOBAL_UNIT_ASSIGNED_CONTEXT ( ( #40, #104, #112 ) ) REPRESENTATION_CONTEXT ( 'NONE', 'WORKASPACE' ) );
#217 = CC_DESIGN_APPROVAL ( #101, ( #23 ) ) ;
#218 = EDGE_CURVE ( 'NONE', #196, #196, #152, .T. ) ;
#219 = EDGE_LOOP ( 'NONE', ( #174 ) ) ;
#220 = DATE_TIME_ROLE ( 'creation_date' ) ;
#221 = DIRECTION ( 'NONE',  ( 3.491481338843133355E-15, -1.224646799147353207E-16, 1.000000000000000000 ) ) ;
#222 = APPROVAL_STATUS ( 'not_yet_approved' ) ;
#223 = VERTEX_POINT ( 'NONE', #54 ) ;
#224 = ORIENTED_EDGE ( 'NONE', *, *, #218, .T. ) ;
#225 = EDGE_LOOP ( 'NONE', ( #81 ) ) ;
#226 = VERTEX_POINT ( 'NONE', #59 ) ;
#227 = ADVANCED_FACE ( 'NONE', ( #167 ), #188, .F. ) ;
#228 = CIRCLE ( 'NONE', #115, 1.404000000000000359 ) ;
#229 = LOCAL_TIME ( 14, 8, 22.00000000000000000, #143 ) ;
#230 = PRODUCT_DEFINITION_SHAPE ( 'NONE', 'NONE',  #78 ) ;
#231 = CARTESIAN_POINT ( 'NONE',  ( 6.982962677686266711E-14, 1.653999999999999249, 20.00000000000000000 ) ) ;
#232 = FACE_OUTER_BOUND ( 'NONE', #225, .T. ) ;
#233 = PERSON_AND_ORGANIZATION ( #103, #38 ) ;
#234 = LOCAL_TIME ( 14, 8, 22.00000000000000000, #46 ) ;
#235 = APPROVAL_ROLE ( '' ) ;
#236 = DIRECTION ( 'NONE',  ( -4.657629853415329736E-31, -1.000000000000000000, -1.311006254516936056E-16 ) ) ;
#237 = CC_DESIGN_PERSON_AND_ORGANIZATION_ASSIGNMENT ( #190, #139, ( #35 ) ) ;
#238 = CC_DESIGN_PERSON_AND_ORGANIZATION_ASSIGNMENT ( #32, #73, ( #170 ) ) ;
#239 = DIRECTION ( 'NONE',  ( 4.275831445896958607E-31, 1.000000000000000000, 1.224646799147353207E-16 ) ) ;
#240 = COORDINATED_UNIVERSAL_TIME_OFFSET ( 1, 0, .AHEAD. ) ;
#241 = CARTESIAN_POINT ( 'NONE',  ( 0.0000000000000000000, 0.0000000000000000000, 0.0000000000000000000 ) ) ;
#242 = DATE_AND_TIME ( #214, #125 ) ;
#243 = AXIS2_PLACEMENT_3D ( 'NONE', #93, #67, #120 ) ;
ENDSEC;
END-ISO-10303-21;
