ISO-10303-21;
HEADER;
FILE_DESCRIPTION (( 'STEP AP203' ),
    '1' );
FILE_NAME ('969409.step',
    '2021-11-30T13:08:21',
    ( '' ),
    ( '' ),
    'SwSTEP 2.0',
    'SolidWorks 2019',
    '' );
FILE_SCHEMA (( 'CONFIG_CONTROL_DESIGN' ));
ENDSEC;

DATA;
#1 = PERSON_AND_ORGANIZATION ( #209, #3 ) ;
#2 = EDGE_LOOP ( 'NONE', ( #75 ) ) ;
#3 = ORGANIZATION ( 'UNSPECIFIED', 'UNSPECIFIED', '' ) ;
#4 = APPLICATION_CONTEXT ( 'configuration controlled 3d designs of mechanical parts and assemblies' ) ;
#5 = APPROVAL ( #95, 'UNSPECIFIED' ) ;
#6 = ORIENTED_EDGE ( 'NONE', *, *, #142, .T. ) ;
#7 = CARTESIAN_POINT ( 'NONE',  ( 7.221231146744935819E-14, -2.532866927106231242E-15, 20.68242801818215426 ) ) ;
#8 = CIRCLE ( 'NONE', #26, 1.250000000000005329 ) ;
#9 = CC_DESIGN_PERSON_AND_ORGANIZATION_ASSIGNMENT ( #1, #191, ( #55 ) ) ;
#10 = CYLINDRICAL_SURFACE ( 'NONE', #70, 1.644000000000000572 ) ;
#11 = DIRECTION ( 'NONE',  ( -3.491481338843133355E-15, 1.224646799147353207E-16, -1.000000000000000000 ) ) ;
#12 =( GEOMETRIC_REPRESENTATION_CONTEXT ( 3 ) GLOBAL_UNCERTAINTY_ASSIGNED_CONTEXT ( ( #131 ) ) GLOBAL_UNIT_ASSIGNED_CONTEXT ( ( #69, #72, #185 ) ) REPRESENTATION_CONTEXT ( 'NONE', 'WORKASPACE' ) );
#13 = FACE_OUTER_BOUND ( 'NONE', #112, .T. ) ;
#14 = ADVANCED_FACE ( 'NONE', ( #212, #120 ), #181, .T. ) ;
#15 = APPLICATION_PROTOCOL_DEFINITION ( 'international standard', 'config_control_design', 1994, #4 ) ;
#16 = DIRECTION ( 'NONE',  ( -3.491481338843133355E-15, 1.224646799147353207E-16, -1.000000000000000000 ) ) ;
#17 = ADVANCED_FACE ( 'NONE', ( #80 ), #22, .F. ) ;
#18 = FACE_OUTER_BOUND ( 'NONE', #173, .T. ) ;
#19 = DIRECTION ( 'NONE',  ( 0.0000000000000000000, 0.0000000000000000000, 1.000000000000000000 ) ) ;
#20 = CALENDAR_DATE ( 2021, 30, 11 ) ;
#21 = PERSON_AND_ORGANIZATION ( #209, #3 ) ;
#22 = PLANE ( 'NONE',  #50 ) ;
#23 = PERSON_AND_ORGANIZATION_ROLE ( 'classification_officer' ) ;
#24 = DIRECTION ( 'NONE',  ( 0.0000000000000000000, 1.000000000000000000, 0.0000000000000000000 ) ) ;
#25 = EDGE_CURVE ( 'NONE', #168, #168, #187, .T. ) ;
#26 = AXIS2_PLACEMENT_3D ( 'NONE', #162, #82, #46 ) ;
#27 = ORIENTED_EDGE ( 'NONE', *, *, #142, .F. ) ;
#28 = DIRECTION ( 'NONE',  ( 4.275831445896957731E-31, 1.000000000000000000, 1.224646799147353454E-16 ) ) ;
#29 = CIRCLE ( 'NONE', #117, 1.644000000000003681 ) ;
#30 = DIRECTION ( 'NONE',  ( 0.0000000000000000000, 1.000000000000000000, 0.0000000000000000000 ) ) ;
#31 = APPROVAL_PERSON_ORGANIZATION ( #221, #224, #129 ) ;
#32 = CARTESIAN_POINT ( 'NONE',  ( 8.728703347107835360E-16, 1.643999999999997463, 0.2500000000000000555 ) ) ;
#33 = EDGE_LOOP ( 'NONE', ( #196 ) ) ;
#34 = PLANE ( 'NONE',  #153 ) ;
#35 = DIRECTION ( 'NONE',  ( 3.491481338843133355E-15, -1.224646799147353207E-16, 1.000000000000000000 ) ) ;
#36 = AXIS2_PLACEMENT_3D ( 'NONE', #7, #150, #227 ) ;
#37 = CALENDAR_DATE ( 2021, 30, 11 ) ;
#38 = APPROVAL_STATUS ( 'not_yet_approved' ) ;
#39 = ORIENTED_EDGE ( 'NONE', *, *, #25, .F. ) ;
#40 = DIRECTION ( 'NONE',  ( -3.491481338843133355E-15, 1.224646799147353207E-16, -1.000000000000000000 ) ) ;
#41 = CLOSED_SHELL ( 'NONE', ( #165, #91, #57, #231 ) ) ;
#42 = DIRECTION ( 'NONE',  ( 4.685960935248755915E-31, 1.000000000000000000, 1.318980745116187380E-16 ) ) ;
#43 = CC_DESIGN_SECURITY_CLASSIFICATION ( #87, ( #55 ) ) ;
#44 = COORDINATED_UNIVERSAL_TIME_OFFSET ( 1, 0, .AHEAD. ) ;
#45 = DIRECTION ( 'NONE',  ( -3.491481338843133355E-15, 1.224646799147353207E-16, -1.000000000000000000 ) ) ;
#46 = DIRECTION ( 'NONE',  ( 0.0000000000000000000, 1.000000000000000000, 0.0000000000000000000 ) ) ;
#47 = LOCAL_TIME ( 14, 8, 21.00000000000000000, #73 ) ;
#48 = DIRECTION ( 'NONE',  ( -3.491481338843133355E-15, 1.224646799147353207E-16, -1.000000000000000000 ) ) ;
#49 = ADVANCED_FACE ( 'NONE', ( #99, #175 ), #157, .T. ) ;
#50 = AXIS2_PLACEMENT_3D ( 'NONE', #122, #190, #194 ) ;
#51 = DIRECTION ( 'NONE',  ( -4.275831445896958607E-31, -1.000000000000000000, -1.224646799147353207E-16 ) ) ;
#52 = ADVANCED_FACE ( 'NONE', ( #176, #126 ), #116, .T. ) ;
#53 = APPROVAL_STATUS ( 'not_yet_approved' ) ;
#54 = CARTESIAN_POINT ( 'NONE',  ( 1.955229549752154679E-13, 0.9999999999999985567, 56.00000000000000000 ) ) ;
#55 = PRODUCT_DEFINITION_FORMATION_WITH_SPECIFIED_SOURCE ( 'ANY', '', #113, .NOT_KNOWN. ) ;
#56 = VERTEX_POINT ( 'NONE', #240 ) ;
#57 = ADVANCED_FACE ( 'NONE', ( #59, #206 ), #10, .T. ) ;
#58 = PERSON_AND_ORGANIZATION ( #209, #3 ) ;
#59 = FACE_OUTER_BOUND ( 'NONE', #63, .T. ) ;
#60 = ORIENTED_EDGE ( 'NONE', *, *, #111, .T. ) ;
#61 = EDGE_LOOP ( 'NONE', ( #27 ) ) ;
#62 = MANIFOLD_SOLID_BREP ( 'Corps-Déplacer/Copier1[2]', #41 ) ;
#63 = EDGE_LOOP ( 'NONE', ( #39 ) ) ;
#64 = DIRECTION ( 'NONE',  ( 4.275831445896958607E-31, 1.000000000000000000, 1.224646799147352961E-16 ) ) ;
#65 = ADVANCED_BREP_SHAPE_REPRESENTATION ( '969409', ( #218, #62, #188 ), #12 ) ;
#66 = EDGE_CURVE ( 'NONE', #147, #147, #217, .T. ) ;
#67 = DIRECTION ( 'NONE',  ( 0.0000000000000000000, 1.000000000000000000, 0.0000000000000000000 ) ) ;
#68 = LOCAL_TIME ( 14, 8, 21.00000000000000000, #44 ) ;
#69 =( LENGTH_UNIT ( ) NAMED_UNIT ( * ) SI_UNIT ( .MILLI., .METRE. ) );
#70 = AXIS2_PLACEMENT_3D ( 'NONE', #216, #127, #64 ) ;
#71 = CC_DESIGN_PERSON_AND_ORGANIZATION_ASSIGNMENT ( #200, #84, ( #113 ) ) ;
#72 =( NAMED_UNIT ( * ) PLANE_ANGLE_UNIT ( ) SI_UNIT ( $, .RADIAN. ) );
#73 = COORDINATED_UNIVERSAL_TIME_OFFSET ( 1, 0, .AHEAD. ) ;
#74 = DATE_AND_TIME ( #97, #229 ) ;
#75 = ORIENTED_EDGE ( 'NONE', *, *, #125, .T. ) ;
#76 = PERSON_AND_ORGANIZATION ( #209, #3 ) ;
#77 = EDGE_LOOP ( 'NONE', ( #182 ) ) ;
#78 = APPLICATION_CONTEXT ( 'configuration controlled 3d designs of mechanical parts and assemblies' ) ;
#79 = ORIENTED_EDGE ( 'NONE', *, *, #101, .F. ) ;
#80 = FACE_OUTER_BOUND ( 'NONE', #107, .T. ) ;
#81 = AXIS2_PLACEMENT_3D ( 'NONE', #230, #138, #42 ) ;
#82 = DIRECTION ( 'NONE',  ( -3.491481338843133355E-15, 1.224646799147353207E-16, -1.000000000000000000 ) ) ;
#83 = DIRECTION ( 'NONE',  ( 4.275831445896957731E-31, 1.000000000000000000, 1.224646799147352961E-16 ) ) ;
#84 = PERSON_AND_ORGANIZATION_ROLE ( 'design_owner' ) ;
#85 = FACE_OUTER_BOUND ( 'NONE', #171, .T. ) ;
#86 = ORIENTED_EDGE ( 'NONE', *, *, #25, .T. ) ;
#87 = SECURITY_CLASSIFICATION ( '', '', #210 ) ;
#88 = COORDINATED_UNIVERSAL_TIME_OFFSET ( 1, 0, .AHEAD. ) ;
#89 = DIRECTION ( 'NONE',  ( -4.275831445896958607E-31, -1.000000000000000000, -1.224646799147353207E-16 ) ) ;
#90 = EDGE_LOOP ( 'NONE', ( #79 ) ) ;
#91 = ADVANCED_FACE ( 'NONE', ( #102, #13 ), #132, .T. ) ;
#92 = CARTESIAN_POINT ( 'NONE',  ( 6.982962677686265448E-14, 1.644000000000001460, 19.99999999999999645 ) ) ;
#93 = PERSON_AND_ORGANIZATION_ROLE ( 'design_supplier' ) ;
#94 = EDGE_CURVE ( 'NONE', #164, #164, #234, .T. ) ;
#95 = APPROVAL_STATUS ( 'not_yet_approved' ) ;
#96 = COORDINATED_UNIVERSAL_TIME_OFFSET ( 1, 0, .AHEAD. ) ;
#97 = CALENDAR_DATE ( 2021, 30, 11 ) ;
#98 = DATE_TIME_ROLE ( 'classification_date' ) ;
#99 = FACE_OUTER_BOUND ( 'NONE', #233, .T. ) ;
#100 = CC_DESIGN_PERSON_AND_ORGANIZATION_ASSIGNMENT ( #149, #118, ( #179 ) ) ;
#101 = EDGE_CURVE ( 'NONE', #56, #56, #8, .T. ) ;
#102 = FACE_BOUND ( 'NONE', #33, .T. ) ;
#103 = AXIS2_PLACEMENT_3D ( 'NONE', #203, #16, #202 ) ;
#104 = DIRECTION ( 'NONE',  ( -3.491481338843133355E-15, 1.224646799147353207E-16, -1.000000000000000000 ) ) ;
#105 = ORIENTED_EDGE ( 'NONE', *, *, #101, .T. ) ;
#106 = VERTEX_POINT ( 'NONE', #183 ) ;
#107 = EDGE_LOOP ( 'NONE', ( #6 ) ) ;
#108 = CLOSED_SHELL ( 'NONE', ( #17, #52, #49, #14, #161 ) ) ;
#109 = AXIS2_PLACEMENT_3D ( 'NONE', #139, #104, #198 ) ;
#110 = FACE_OUTER_BOUND ( 'NONE', #77, .T. ) ;
#111 = EDGE_CURVE ( 'NONE', #106, #106, #135, .T. ) ;
#112 = EDGE_LOOP ( 'NONE', ( #86 ) ) ;
#113 = PRODUCT ( '969409', '969409', '', ( #225 ) ) ;
#114 = CARTESIAN_POINT ( 'NONE',  ( 6.982962677686265448E-14, 1.644000000000001460, 19.99999999999999645 ) ) ;
#115 = VERTEX_POINT ( 'NONE', #242 ) ;
#116 = CONICAL_SURFACE ( 'NONE', #36, 1.249999999999996003, 0.5235987755982958181 ) ;
#117 = AXIS2_PLACEMENT_3D ( 'NONE', #143, #219, #128 ) ;
#118 = PERSON_AND_ORGANIZATION_ROLE ( 'creator' ) ;
#119 = ORIENTED_EDGE ( 'NONE', *, *, #94, .T. ) ;
#120 = FACE_BOUND ( 'NONE', #184, .T. ) ;
#121 = DATE_AND_TIME ( #37, #47 ) ;
#122 = CARTESIAN_POINT ( 'NONE',  ( 6.982962677686265448E-14, 4.372127358656339827E-31, 19.99999999999999645 ) ) ;
#123 = AXIS2_PLACEMENT_3D ( 'NONE', #159, #235, #160 ) ;
#124 = CALENDAR_DATE ( 2021, 30, 11 ) ;
#125 = EDGE_CURVE ( 'NONE', #115, #115, #177, .T. ) ;
#126 = FACE_BOUND ( 'NONE', #2, .T. ) ;
#127 = DIRECTION ( 'NONE',  ( -3.491481338843133355E-15, 1.224646799147353207E-16, -1.000000000000000000 ) ) ;
#128 = DIRECTION ( 'NONE',  ( 0.0000000000000000000, 1.000000000000000000, 0.0000000000000000000 ) ) ;
#129 = APPROVAL_ROLE ( '' ) ;
#130 = CARTESIAN_POINT ( 'NONE',  ( -4.872990344173342034E-31, 1.709214928596804981E-32, -1.395679905248457608E-16 ) ) ;
#131 = UNCERTAINTY_MEASURE_WITH_UNIT (LENGTH_MEASURE( 1.000000000000000082E-05 ), #69, 'distance_accuracy_value', 'NONE');
#132 = CONICAL_SURFACE ( 'NONE', #123, 1.643999999999997463, 0.7853981633974425058 ) ;
#133 = PLANE ( 'NONE',  #140 ) ;
#134 = CARTESIAN_POINT ( 'NONE',  ( 0.0000000000000000000, 0.0000000000000000000, 0.0000000000000000000 ) ) ;
#135 = CIRCLE ( 'NONE', #144, 1.394000000000000350 ) ;
#136 = EDGE_LOOP ( 'NONE', ( #154 ) ) ;
#137 = EDGE_LOOP ( 'NONE', ( #105 ) ) ;
#138 = DIRECTION ( 'NONE',  ( -3.491481338843133355E-15, 1.224646799147353207E-16, -1.000000000000000000 ) ) ;
#139 = CARTESIAN_POINT ( 'NONE',  ( 1.955229549752154679E-13, -6.858022075225178552E-15, 56.00000000000000000 ) ) ;
#140 = AXIS2_PLACEMENT_3D ( 'NONE', #199, #35, #89 ) ;
#141 = DIRECTION ( 'NONE',  ( -3.491481338843133355E-15, 1.224646799147353207E-16, -1.000000000000000000 ) ) ;
#142 = EDGE_CURVE ( 'NONE', #220, #220, #29, .T. ) ;
#143 = CARTESIAN_POINT ( 'NONE',  ( 6.982962677686265448E-14, -2.449293598294706119E-15, 19.99999999999999645 ) ) ;
#144 = AXIS2_PLACEMENT_3D ( 'NONE', #178, #11, #83 ) ;
#145 = APPLICATION_PROTOCOL_DEFINITION ( 'international standard', 'config_control_design', 1994, #78 ) ;
#146 = DATE_AND_TIME ( #167, #166 ) ;
#147 = VERTEX_POINT ( 'NONE', #92 ) ;
#148 = APPROVAL_PERSON_ORGANIZATION ( #21, #5, #243 ) ;
#149 = PERSON_AND_ORGANIZATION ( #209, #3 ) ;
#150 = DIRECTION ( 'NONE',  ( -3.491481338843133355E-15, 1.224646799147353207E-16, -1.000000000000000000 ) ) ;
#151 = PERSON_AND_ORGANIZATION ( #209, #3 ) ;
#152 = AXIS2_PLACEMENT_3D ( 'NONE', #214, #45, #28 ) ;
#153 = AXIS2_PLACEMENT_3D ( 'NONE', #130, #239, #51 ) ;
#154 = ORIENTED_EDGE ( 'NONE', *, *, #66, .T. ) ;
#155 = APPROVAL ( #38, 'UNSPECIFIED' ) ;
#156 = ORIENTED_EDGE ( 'NONE', *, *, #125, .F. ) ;
#157 = CYLINDRICAL_SURFACE ( 'NONE', #152, 1.250000000000000666 ) ;
#158 = AXIS2_PLACEMENT_3D ( 'NONE', #192, #40, #24 ) ;
#159 = CARTESIAN_POINT ( 'NONE',  ( 8.728703347107827472E-16, -3.061616997868381169E-17, 0.2499999999999998335 ) ) ;
#160 = DIRECTION ( 'NONE',  ( -4.685960935248755915E-31, -1.000000000000000000, -1.318980745116187380E-16 ) ) ;
#161 = ADVANCED_FACE ( 'NONE', ( #18 ), #163, .F. ) ;
#162 = CARTESIAN_POINT ( 'NONE',  ( 1.946500846405046877E-13, -6.827405905246494765E-15, 55.75000000000000000 ) ) ;
#163 = PLANE ( 'NONE',  #103 ) ;
#164 = VERTEX_POINT ( 'NONE', #54 ) ;
#165 = ADVANCED_FACE ( 'NONE', ( #85 ), #34, .F. ) ;
#166 = LOCAL_TIME ( 14, 8, 21.00000000000000000, #88 ) ;
#167 = CALENDAR_DATE ( 2021, 30, 11 ) ;
#168 = VERTEX_POINT ( 'NONE', #32 ) ;
#169 = CC_DESIGN_APPROVAL ( #5, ( #55 ) ) ;
#170 = CC_DESIGN_PERSON_AND_ORGANIZATION_ASSIGNMENT ( #58, #23, ( #87 ) ) ;
#171 = EDGE_LOOP ( 'NONE', ( #60 ) ) ;
#172 = APPROVAL_DATE_TIME ( #232, #5 ) ;
#173 = EDGE_LOOP ( 'NONE', ( #201 ) ) ;
#174 = DATE_AND_TIME ( #20, #237 ) ;
#175 = FACE_OUTER_BOUND ( 'NONE', #137, .T. ) ;
#176 = FACE_OUTER_BOUND ( 'NONE', #61, .T. ) ;
#177 = CIRCLE ( 'NONE', #213, 1.249999999999996003 ) ;
#178 = CARTESIAN_POINT ( 'NONE',  ( -9.745980688346684068E-31, 3.418429857193609961E-32, -2.791359810496915216E-16 ) ) ;
#179 = PRODUCT_DEFINITION ( 'UNKNOWN', '', #55, #223 ) ;
#180 = PRODUCT_DEFINITION_SHAPE ( 'NONE', 'NONE',  #179 ) ;
#181 = CONICAL_SURFACE ( 'NONE', #158, 1.000000000000005551, 0.7853981633974473908 ) ;
#182 = ORIENTED_EDGE ( 'NONE', *, *, #66, .F. ) ;
#183 = CARTESIAN_POINT ( 'NONE',  ( -3.785471652766323589E-31, 1.394000000000000350, -1.084202172485504681E-16 ) ) ;
#184 = EDGE_LOOP ( 'NONE', ( #119 ) ) ;
#185 =( NAMED_UNIT ( * ) SI_UNIT ( $, .STERADIAN. ) SOLID_ANGLE_UNIT ( ) );
#186 = COORDINATED_UNIVERSAL_TIME_OFFSET ( 1, 0, .AHEAD. ) ;
#187 = CIRCLE ( 'NONE', #81, 1.643999999999997463 ) ;
#188 = AXIS2_PLACEMENT_3D ( 'NONE', #134, #19, #205 ) ;
#189 = DATE_TIME_ROLE ( 'creation_date' ) ;
#190 = DIRECTION ( 'NONE',  ( 3.491481338843133355E-15, -1.224646799147353207E-16, 1.000000000000000000 ) ) ;
#191 = PERSON_AND_ORGANIZATION_ROLE ( 'creator' ) ;
#192 = CARTESIAN_POINT ( 'NONE',  ( 1.955229549752154679E-13, -6.858022075225178552E-15, 56.00000000000000000 ) ) ;
#193 = APPROVAL_ROLE ( '' ) ;
#194 = DIRECTION ( 'NONE',  ( -4.275831445896958607E-31, -1.000000000000000000, -1.224646799147353207E-16 ) ) ;
#195 = CC_DESIGN_APPROVAL ( #155, ( #87 ) ) ;
#196 = ORIENTED_EDGE ( 'NONE', *, *, #111, .F. ) ;
#197 = CARTESIAN_POINT ( 'NONE',  ( 6.982962677686265448E-14, -2.449293598294706119E-15, 19.99999999999999645 ) ) ;
#198 = DIRECTION ( 'NONE',  ( 0.0000000000000000000, 1.000000000000000000, 0.0000000000000000000 ) ) ;
#199 = CARTESIAN_POINT ( 'NONE',  ( 6.982962677686265448E-14, 4.372127358656339827E-31, 19.99999999999999645 ) ) ;
#200 = PERSON_AND_ORGANIZATION ( #209, #3 ) ;
#201 = ORIENTED_EDGE ( 'NONE', *, *, #94, .F. ) ;
#202 = DIRECTION ( 'NONE',  ( 4.275831445896958607E-31, 1.000000000000000000, 1.224646799147353207E-16 ) ) ;
#203 = CARTESIAN_POINT ( 'NONE',  ( 1.955229549752154679E-13, 7.498798913309223722E-33, 56.00000000000000000 ) ) ;
#204 = PRODUCT_RELATED_PRODUCT_CATEGORY ( 'detail', '', ( #113 ) ) ;
#205 = DIRECTION ( 'NONE',  ( 1.000000000000000000, 0.0000000000000000000, 0.0000000000000000000 ) ) ;
#206 = FACE_OUTER_BOUND ( 'NONE', #136, .T. ) ;
#207 = APPROVAL_PERSON_ORGANIZATION ( #76, #155, #193 ) ;
#208 = CC_DESIGN_PERSON_AND_ORGANIZATION_ASSIGNMENT ( #151, #93, ( #55 ) ) ;
#209 = PERSON ( 'UNSPECIFIED', 'UNSPECIFIED', 'UNSPECIFIED', ('UNSPECIFIED'), ('UNSPECIFIED'), ('UNSPECIFIED') ) ;
#210 = SECURITY_CLASSIFICATION_LEVEL ( 'unclassified' ) ;
#211 = APPROVAL_DATE_TIME ( #174, #155 ) ;
#212 = FACE_OUTER_BOUND ( 'NONE', #90, .T. ) ;
#213 = AXIS2_PLACEMENT_3D ( 'NONE', #238, #141, #67 ) ;
#214 = CARTESIAN_POINT ( 'NONE',  ( 0.0000000000000000000, 0.0000000000000000000, 0.0000000000000000000 ) ) ;
#215 = CC_DESIGN_DATE_AND_TIME_ASSIGNMENT ( #121, #189, ( #179 ) ) ;
#216 = CARTESIAN_POINT ( 'NONE',  ( 0.0000000000000000000, 0.0000000000000000000, 0.0000000000000000000 ) ) ;
#217 = CIRCLE ( 'NONE', #241, 1.644000000000003681 ) ;
#218 = MANIFOLD_SOLID_BREP ( 'Corps-Déplacer/Copier1[1]', #108 ) ;
#219 = DIRECTION ( 'NONE',  ( -3.491481338843133355E-15, 1.224646799147353207E-16, -1.000000000000000000 ) ) ;
#220 = VERTEX_POINT ( 'NONE', #114 ) ;
#221 = PERSON_AND_ORGANIZATION ( #209, #3 ) ;
#222 = APPROVAL_DATE_TIME ( #146, #224 ) ;
#223 = DESIGN_CONTEXT ( 'detailed design', #78, 'design' ) ;
#224 = APPROVAL ( #53, 'UNSPECIFIED' ) ;
#225 = MECHANICAL_CONTEXT ( 'NONE', #4, 'mechanical' ) ;
#226 = CC_DESIGN_APPROVAL ( #224, ( #179 ) ) ;
#227 = DIRECTION ( 'NONE',  ( 0.0000000000000000000, 1.000000000000000000, 0.0000000000000000000 ) ) ;
#228 = SHAPE_DEFINITION_REPRESENTATION ( #180, #65 ) ;
#229 = LOCAL_TIME ( 14, 8, 21.00000000000000000, #96 ) ;
#230 = CARTESIAN_POINT ( 'NONE',  ( 8.728703347107827472E-16, -3.061616997868381169E-17, 0.2499999999999998335 ) ) ;
#231 = ADVANCED_FACE ( 'NONE', ( #110 ), #133, .T. ) ;
#232 = DATE_AND_TIME ( #124, #68 ) ;
#233 = EDGE_LOOP ( 'NONE', ( #156 ) ) ;
#234 = CIRCLE ( 'NONE', #109, 1.000000000000005551 ) ;
#235 = DIRECTION ( 'NONE',  ( 3.491481338843133355E-15, -1.224646799147353207E-16, 1.000000000000000000 ) ) ;
#236 = CC_DESIGN_DATE_AND_TIME_ASSIGNMENT ( #74, #98, ( #87 ) ) ;
#237 = LOCAL_TIME ( 14, 8, 21.00000000000000000, #186 ) ;
#238 = CARTESIAN_POINT ( 'NONE',  ( 7.221231146744935819E-14, -2.532866927106231242E-15, 20.68242801818215426 ) ) ;
#239 = DIRECTION ( 'NONE',  ( 3.491481338843133355E-15, -1.224646799147353207E-16, 1.000000000000000000 ) ) ;
#240 = CARTESIAN_POINT ( 'NONE',  ( 1.946500846405046877E-13, 1.249999999999998446, 55.75000000000000000 ) ) ;
#241 = AXIS2_PLACEMENT_3D ( 'NONE', #197, #48, #30 ) ;
#242 = CARTESIAN_POINT ( 'NONE',  ( 7.221231146744935819E-14, 1.249999999999993339, 20.68242801818215426 ) ) ;
#243 = APPROVAL_ROLE ( '' ) ;
ENDSEC;
END-ISO-10303-21;
