ISO-10303-21;
HEADER;
FILE_DESCRIPTION (( 'STEP AP203' ),
    '1' );
FILE_NAME ('969408.step',
    '2021-11-30T13:08:20',
    ( '' ),
    ( '' ),
    'SwSTEP 2.0',
    'SolidWorks 2019',
    '' );
FILE_SCHEMA (( 'CONFIG_CONTROL_DESIGN' ));
ENDSEC;

DATA;
#1 = FACE_OUTER_BOUND ( 'NONE', #215, .T. ) ;
#2 = ORIENTED_EDGE ( 'NONE', *, *, #89, .F. ) ;
#3 = PERSON ( 'UNSPECIFIED', 'UNSPECIFIED', 'UNSPECIFIED', ('UNSPECIFIED'), ('UNSPECIFIED'), ('UNSPECIFIED') ) ;
#4 = EDGE_LOOP ( 'NONE', ( #2 ) ) ;
#5 = ORGANIZATION ( 'UNSPECIFIED', 'UNSPECIFIED', '' ) ;
#6 = EDGE_LOOP ( 'NONE', ( #20 ) ) ;
#7 = VERTEX_POINT ( 'NONE', #8 ) ;
#8 = CARTESIAN_POINT ( 'NONE',  ( 6.982962677686266711E-14, 1.628999999999998449, 20.00000000000000000 ) ) ;
#9 = MANIFOLD_SOLID_BREP ( 'Corps-Déplacer/Copier1[2]', #47 ) ;
#10 = ORIENTED_EDGE ( 'NONE', *, *, #222, .F. ) ;
#11 = AXIS2_PLACEMENT_3D ( 'NONE', #72, #87, #52 ) ;
#12 = APPLICATION_PROTOCOL_DEFINITION ( 'international standard', 'config_control_design', 1994, #167 ) ;
#13 = DIRECTION ( 'NONE',  ( 1.000000000000000000, 0.0000000000000000000, 0.0000000000000000000 ) ) ;
#14 = CALENDAR_DATE ( 2021, 30, 11 ) ;
#15 = CARTESIAN_POINT ( 'NONE',  ( 0.0000000000000000000, 0.0000000000000000000, 0.0000000000000000000 ) ) ;
#16 = EDGE_CURVE ( 'NONE', #91, #91, #79, .T. ) ;
#17 = ADVANCED_FACE ( 'NONE', ( #131, #116 ), #105, .T. ) ;
#18 = CARTESIAN_POINT ( 'NONE',  ( 2.730021697203530463E-31, -9.575627100991182159E-33, 7.819092907161563273E-17 ) ) ;
#19 = AXIS2_PLACEMENT_3D ( 'NONE', #100, #55, #218 ) ;
#20 = ORIENTED_EDGE ( 'NONE', *, *, #188, .T. ) ;
#21 = CC_DESIGN_PERSON_AND_ORGANIZATION_ASSIGNMENT ( #193, #226, ( #42 ) ) ;
#22 = ADVANCED_FACE ( 'NONE', ( #219 ), #69, .F. ) ;
#23 = COORDINATED_UNIVERSAL_TIME_OFFSET ( 1, 0, .AHEAD. ) ;
#24 = PRODUCT ( '969408', '969408', '', ( #184 ) ) ;
#25 = AXIS2_PLACEMENT_3D ( 'NONE', #121, #98, #164 ) ;
#26 = PERSON_AND_ORGANIZATION ( #3, #5 ) ;
#27 = LOCAL_TIME ( 14, 8, 20.00000000000000000, #111 ) ;
#28 = CC_DESIGN_APPROVAL ( #160, ( #129 ) ) ;
#29 = VERTEX_POINT ( 'NONE', #199 ) ;
#30 = CARTESIAN_POINT ( 'NONE',  ( 1.946500846405046877E-13, 1.249999999999998446, 55.75000000000000000 ) ) ;
#31 = APPROVAL_PERSON_ORGANIZATION ( #93, #43, #34 ) ;
#32 = ORIENTED_EDGE ( 'NONE', *, *, #110, .F. ) ;
#33 = APPROVAL_STATUS ( 'not_yet_approved' ) ;
#34 = APPROVAL_ROLE ( '' ) ;
#35 = CYLINDRICAL_SURFACE ( 'NONE', #132, 1.628999999999999337 ) ;
#36 = DIRECTION ( 'NONE',  ( 0.0000000000000000000, 1.000000000000000000, 0.0000000000000000000 ) ) ;
#37 = CARTESIAN_POINT ( 'NONE',  ( 0.0000000000000000000, 0.0000000000000000000, 0.0000000000000000000 ) ) ;
#38 = FACE_OUTER_BOUND ( 'NONE', #4, .T. ) ;
#39 = AXIS2_PLACEMENT_3D ( 'NONE', #128, #204, #185 ) ;
#40 = CALENDAR_DATE ( 2021, 30, 11 ) ;
#41 = PERSON_AND_ORGANIZATION_ROLE ( 'design_supplier' ) ;
#42 = SECURITY_CLASSIFICATION ( '', '', #117 ) ;
#43 = APPROVAL ( #33, 'UNSPECIFIED' ) ;
#44 = PLANE ( 'NONE',  #231 ) ;
#45 = FACE_OUTER_BOUND ( 'NONE', #156, .T. ) ;
#46 = PRODUCT_DEFINITION ( 'UNKNOWN', '', #129, #56 ) ;
#47 = CLOSED_SHELL ( 'NONE', ( #183, #170, #54, #95 ) ) ;
#48 = CARTESIAN_POINT ( 'NONE',  ( 7.212160012136103937E-14, 1.249999999999993339, 20.65644725606862053 ) ) ;
#49 = DIRECTION ( 'NONE',  ( 4.729109746807215888E-31, 1.000000000000000000, 1.331126055844697385E-16 ) ) ;
#50 = AXIS2_PLACEMENT_3D ( 'NONE', #221, #238, #77 ) ;
#51 = ORIENTED_EDGE ( 'NONE', *, *, #16, .F. ) ;
#52 = DIRECTION ( 'NONE',  ( 4.275831445896958607E-31, 1.000000000000000000, 1.224646799147353207E-16 ) ) ;
#53 = EDGE_LOOP ( 'NONE', ( #120 ) ) ;
#54 = ADVANCED_FACE ( 'NONE', ( #217, #187 ), #35, .T. ) ;
#55 = DIRECTION ( 'NONE',  ( -3.491481338843133355E-15, 1.224646799147353207E-16, -1.000000000000000000 ) ) ;
#56 = DESIGN_CONTEXT ( 'detailed design', #167, 'design' ) ;
#57 = APPROVAL_PERSON_ORGANIZATION ( #58, #160, #172 ) ;
#58 = PERSON_AND_ORGANIZATION ( #3, #5 ) ;
#59 = DIRECTION ( 'NONE',  ( 0.0000000000000000000, 1.000000000000000000, 0.0000000000000000000 ) ) ;
#60 = AXIS2_PLACEMENT_3D ( 'NONE', #163, #237, #36 ) ;
#61 = APPROVAL_PERSON_ORGANIZATION ( #161, #243, #112 ) ;
#62 = DATE_AND_TIME ( #168, #86 ) ;
#63 = APPROVAL_DATE_TIME ( #62, #160 ) ;
#64 = DIRECTION ( 'NONE',  ( -3.491481338843133355E-15, 1.224646799147353207E-16, -1.000000000000000000 ) ) ;
#65 = ORIENTED_EDGE ( 'NONE', *, *, #110, .T. ) ;
#66 = AXIS2_PLACEMENT_3D ( 'NONE', #37, #127, #13 ) ;
#67 = APPLICATION_PROTOCOL_DEFINITION ( 'international standard', 'config_control_design', 1994, #209 ) ;
#68 =( LENGTH_UNIT ( ) NAMED_UNIT ( * ) SI_UNIT ( .MILLI., .METRE. ) );
#69 = PLANE ( 'NONE',  #138 ) ;
#70 = VERTEX_POINT ( 'NONE', #30 ) ;
#71 = AXIS2_PLACEMENT_3D ( 'NONE', #210, #166, #135 ) ;
#72 = CARTESIAN_POINT ( 'NONE',  ( 5.460043394407060926E-31, -1.915125420198236432E-32, 1.563818581432312655E-16 ) ) ;
#73 = EDGE_LOOP ( 'NONE', ( #32 ) ) ;
#74 = DIRECTION ( 'NONE',  ( 3.491481338843133355E-15, -1.224646799147353207E-16, 1.000000000000000000 ) ) ;
#75 = PERSON_AND_ORGANIZATION ( #3, #5 ) ;
#76 = APPROVAL_DATE_TIME ( #165, #243 ) ;
#77 = DIRECTION ( 'NONE',  ( 0.0000000000000000000, 1.000000000000000000, 0.0000000000000000000 ) ) ;
#78 = COORDINATED_UNIVERSAL_TIME_OFFSET ( 1, 0, .AHEAD. ) ;
#79 = CIRCLE ( 'NONE', #25, 1.629000000000000892 ) ;
#80 = COORDINATED_UNIVERSAL_TIME_OFFSET ( 1, 0, .AHEAD. ) ;
#81 = FACE_BOUND ( 'NONE', #180, .T. ) ;
#82 = AXIS2_PLACEMENT_3D ( 'NONE', #152, #64, #136 ) ;
#83 = DATE_TIME_ROLE ( 'classification_date' ) ;
#84 = CYLINDRICAL_SURFACE ( 'NONE', #82, 1.250000000000000666 ) ;
#85 = DIRECTION ( 'NONE',  ( -3.491481338843133355E-15, 1.224646799147353207E-16, -1.000000000000000000 ) ) ;
#86 = LOCAL_TIME ( 14, 8, 20.00000000000000000, #130 ) ;
#87 = DIRECTION ( 'NONE',  ( -3.491481338843133355E-15, 1.224646799147353207E-16, -1.000000000000000000 ) ) ;
#88 = EDGE_LOOP ( 'NONE', ( #65 ) ) ;
#89 = EDGE_CURVE ( 'NONE', #29, #29, #124, .T. ) ;
#90 = CARTESIAN_POINT ( 'NONE',  ( 1.135641495829896858E-30, 1.379000000000000448, 3.252606517456513302E-16 ) ) ;
#91 = VERTEX_POINT ( 'NONE', #213 ) ;
#92 = ORIENTED_EDGE ( 'NONE', *, *, #16, .T. ) ;
#93 = PERSON_AND_ORGANIZATION ( #3, #5 ) ;
#94 = EDGE_LOOP ( 'NONE', ( #234 ) ) ;
#95 = ADVANCED_FACE ( 'NONE', ( #207 ), #97, .T. ) ;
#96 = PERSON_AND_ORGANIZATION_ROLE ( 'design_owner' ) ;
#97 = PLANE ( 'NONE',  #225 ) ;
#98 = DIRECTION ( 'NONE',  ( -3.491481338843133355E-15, 1.224646799147353207E-16, -1.000000000000000000 ) ) ;
#99 = CARTESIAN_POINT ( 'NONE',  ( 6.982962677686266711E-14, -2.449293598294706513E-15, 20.00000000000000000 ) ) ;
#100 = CARTESIAN_POINT ( 'NONE',  ( 1.955229549752154679E-13, -6.858022075225178552E-15, 56.00000000000000000 ) ) ;
#101 = EDGE_LOOP ( 'NONE', ( #171 ) ) ;
#102 = FACE_OUTER_BOUND ( 'NONE', #101, .T. ) ;
#103 = PRODUCT_DEFINITION_SHAPE ( 'NONE', 'NONE',  #46 ) ;
#104 = DATE_AND_TIME ( #40, #214 ) ;
#105 = CONICAL_SURFACE ( 'NONE', #19, 1.000000000000005551, 0.7853981633974473908 ) ;
#106 = CIRCLE ( 'NONE', #194, 1.628999999999997561 ) ;
#107 = DIRECTION ( 'NONE',  ( 4.275831445896958607E-31, 1.000000000000000000, 1.224646799147353207E-16 ) ) ;
#108 =( NAMED_UNIT ( * ) SI_UNIT ( $, .STERADIAN. ) SOLID_ANGLE_UNIT ( ) );
#109 = VERTEX_POINT ( 'NONE', #90 ) ;
#110 = EDGE_CURVE ( 'NONE', #70, #70, #122, .T. ) ;
#111 = COORDINATED_UNIVERSAL_TIME_OFFSET ( 1, 0, .AHEAD. ) ;
#112 = APPROVAL_ROLE ( '' ) ;
#113 = EDGE_CURVE ( 'NONE', #179, #179, #147, .T. ) ;
#114 = PLANE ( 'NONE',  #181 ) ;
#115 = CONICAL_SURFACE ( 'NONE', #71, 1.628999999999997561, 0.7853981633974432830 ) ;
#116 = FACE_BOUND ( 'NONE', #53, .T. ) ;
#117 = SECURITY_CLASSIFICATION_LEVEL ( 'unclassified' ) ;
#118 = CONICAL_SURFACE ( 'NONE', #228, 1.249999999999996003, 0.5235987755982952629 ) ;
#119 = DIRECTION ( 'NONE',  ( 3.491481338843133355E-15, -1.224646799147353207E-16, 1.000000000000000000 ) ) ;
#120 = ORIENTED_EDGE ( 'NONE', *, *, #89, .T. ) ;
#121 = CARTESIAN_POINT ( 'NONE',  ( 6.982962677686266711E-14, -2.449293598294706513E-15, 20.00000000000000000 ) ) ;
#122 = CIRCLE ( 'NONE', #50, 1.250000000000005329 ) ;
#123 = CARTESIAN_POINT ( 'NONE',  ( 8.728703347107827472E-16, -3.061616997868381169E-17, 0.2499999999999998335 ) ) ;
#124 = CIRCLE ( 'NONE', #60, 1.000000000000005551 ) ;
#125 = LOCAL_TIME ( 14, 8, 20.00000000000000000, #80 ) ;
#126 = ADVANCED_FACE ( 'NONE', ( #38 ), #114, .F. ) ;
#127 = DIRECTION ( 'NONE',  ( 0.0000000000000000000, 0.0000000000000000000, 1.000000000000000000 ) ) ;
#128 = CARTESIAN_POINT ( 'NONE',  ( 7.212160012136103937E-14, -2.529685201390056109E-15, 20.65644725606862053 ) ) ;
#129 = PRODUCT_DEFINITION_FORMATION_WITH_SPECIFIED_SOURCE ( 'ANY', '', #24, .NOT_KNOWN. ) ;
#130 = COORDINATED_UNIVERSAL_TIME_OFFSET ( 1, 0, .AHEAD. ) ;
#131 = FACE_OUTER_BOUND ( 'NONE', #73, .T. ) ;
#132 = AXIS2_PLACEMENT_3D ( 'NONE', #15, #146, #240 ) ;
#133 = PERSON_AND_ORGANIZATION_ROLE ( 'creator' ) ;
#134 = ADVANCED_FACE ( 'NONE', ( #1, #169 ), #84, .T. ) ;
#135 = DIRECTION ( 'NONE',  ( -4.729109746807215888E-31, -1.000000000000000000, -1.331126055844697385E-16 ) ) ;
#136 = DIRECTION ( 'NONE',  ( 4.275831445896957731E-31, 1.000000000000000000, 1.224646799147353454E-16 ) ) ;
#137 = CC_DESIGN_PERSON_AND_ORGANIZATION_ASSIGNMENT ( #75, #96, ( #24 ) ) ;
#138 = AXIS2_PLACEMENT_3D ( 'NONE', #176, #139, #203 ) ;
#139 = DIRECTION ( 'NONE',  ( 3.491481338843133355E-15, -1.224646799147353207E-16, 1.000000000000000000 ) ) ;
#140 = EDGE_LOOP ( 'NONE', ( #224 ) ) ;
#141 =( NAMED_UNIT ( * ) PLANE_ANGLE_UNIT ( ) SI_UNIT ( $, .RADIAN. ) );
#142 = PRODUCT_RELATED_PRODUCT_CATEGORY ( 'detail', '', ( #24 ) ) ;
#143 = DATE_AND_TIME ( #159, #27 ) ;
#144 = APPROVAL_STATUS ( 'not_yet_approved' ) ;
#145 = DIRECTION ( 'NONE',  ( -4.275831445896958607E-31, -1.000000000000000000, -1.224646799147353207E-16 ) ) ;
#146 = DIRECTION ( 'NONE',  ( -3.491481338843133355E-15, 1.224646799147353207E-16, -1.000000000000000000 ) ) ;
#147 = CIRCLE ( 'NONE', #39, 1.249999999999996003 ) ;
#148 = CIRCLE ( 'NONE', #11, 1.379000000000000448 ) ;
#149 = EDGE_LOOP ( 'NONE', ( #92 ) ) ;
#150 = CALENDAR_DATE ( 2021, 30, 11 ) ;
#151 = FACE_OUTER_BOUND ( 'NONE', #202, .T. ) ;
#152 = CARTESIAN_POINT ( 'NONE',  ( 0.0000000000000000000, 0.0000000000000000000, 0.0000000000000000000 ) ) ;
#153 = ORIENTED_EDGE ( 'NONE', *, *, #113, .F. ) ;
#154 = ADVANCED_BREP_SHAPE_REPRESENTATION ( '969408', ( #174, #9, #66 ), #155 ) ;
#155 =( GEOMETRIC_REPRESENTATION_CONTEXT ( 3 ) GLOBAL_UNCERTAINTY_ASSIGNED_CONTEXT ( ( #208 ) ) GLOBAL_UNIT_ASSIGNED_CONTEXT ( ( #68, #141, #108 ) ) REPRESENTATION_CONTEXT ( 'NONE', 'WORKASPACE' ) );
#156 = EDGE_LOOP ( 'NONE', ( #242 ) ) ;
#157 = DIRECTION ( 'NONE',  ( 0.0000000000000000000, 1.000000000000000000, 0.0000000000000000000 ) ) ;
#158 = FACE_BOUND ( 'NONE', #94, .T. ) ;
#159 = CALENDAR_DATE ( 2021, 30, 11 ) ;
#160 = APPROVAL ( #223, 'UNSPECIFIED' ) ;
#161 = PERSON_AND_ORGANIZATION ( #3, #5 ) ;
#162 = PERSON_AND_ORGANIZATION_ROLE ( 'creator' ) ;
#163 = CARTESIAN_POINT ( 'NONE',  ( 1.955229549752154679E-13, -6.858022075225178552E-15, 56.00000000000000000 ) ) ;
#164 = DIRECTION ( 'NONE',  ( 0.0000000000000000000, 1.000000000000000000, 0.0000000000000000000 ) ) ;
#165 = DATE_AND_TIME ( #14, #177 ) ;
#166 = DIRECTION ( 'NONE',  ( 3.491481338843133355E-15, -1.224646799147353207E-16, 1.000000000000000000 ) ) ;
#167 = APPLICATION_CONTEXT ( 'configuration controlled 3d designs of mechanical parts and assemblies' ) ;
#168 = CALENDAR_DATE ( 2021, 30, 11 ) ;
#169 = FACE_OUTER_BOUND ( 'NONE', #88, .T. ) ;
#170 = ADVANCED_FACE ( 'NONE', ( #81, #102 ), #115, .T. ) ;
#171 = ORIENTED_EDGE ( 'NONE', *, *, #230, .T. ) ;
#172 = APPROVAL_ROLE ( '' ) ;
#173 = DATE_AND_TIME ( #150, #125 ) ;
#174 = MANIFOLD_SOLID_BREP ( 'Corps-Déplacer/Copier1[1]', #236 ) ;
#175 = VERTEX_POINT ( 'NONE', #201 ) ;
#176 = CARTESIAN_POINT ( 'NONE',  ( 6.982962677686266711E-14, 1.221554342978080088E-32, 20.00000000000000000 ) ) ;
#177 = LOCAL_TIME ( 14, 8, 20.00000000000000000, #78 ) ;
#178 = CC_DESIGN_DATE_AND_TIME_ASSIGNMENT ( #104, #83, ( #42 ) ) ;
#179 = VERTEX_POINT ( 'NONE', #48 ) ;
#180 = EDGE_LOOP ( 'NONE', ( #10 ) ) ;
#181 = AXIS2_PLACEMENT_3D ( 'NONE', #190, #197, #107 ) ;
#182 = CC_DESIGN_APPROVAL ( #243, ( #42 ) ) ;
#183 = ADVANCED_FACE ( 'NONE', ( #151 ), #44, .F. ) ;
#184 = MECHANICAL_CONTEXT ( 'NONE', #209, 'mechanical' ) ;
#185 = DIRECTION ( 'NONE',  ( 0.0000000000000000000, 1.000000000000000000, 0.0000000000000000000 ) ) ;
#186 = APPROVAL_DATE_TIME ( #143, #43 ) ;
#187 = FACE_OUTER_BOUND ( 'NONE', #149, .T. ) ;
#188 = EDGE_CURVE ( 'NONE', #7, #7, #189, .T. ) ;
#189 = CIRCLE ( 'NONE', #205, 1.629000000000000892 ) ;
#190 = CARTESIAN_POINT ( 'NONE',  ( 1.955229549752154679E-13, 7.498798913309223722E-33, 56.00000000000000000 ) ) ;
#191 = ADVANCED_FACE ( 'NONE', ( #45, #158 ), #118, .T. ) ;
#192 = CC_DESIGN_PERSON_AND_ORGANIZATION_ASSIGNMENT ( #195, #41, ( #129 ) ) ;
#193 = PERSON_AND_ORGANIZATION ( #3, #5 ) ;
#194 = AXIS2_PLACEMENT_3D ( 'NONE', #123, #200, #49 ) ;
#195 = PERSON_AND_ORGANIZATION ( #3, #5 ) ;
#196 = CC_DESIGN_PERSON_AND_ORGANIZATION_ASSIGNMENT ( #216, #162, ( #46 ) ) ;
#197 = DIRECTION ( 'NONE',  ( -3.491481338843133355E-15, 1.224646799147353207E-16, -1.000000000000000000 ) ) ;
#198 = CC_DESIGN_SECURITY_CLASSIFICATION ( #42, ( #129 ) ) ;
#199 = CARTESIAN_POINT ( 'NONE',  ( 1.955229549752154679E-13, 0.9999999999999985567, 56.00000000000000000 ) ) ;
#200 = DIRECTION ( 'NONE',  ( -3.491481338843133355E-15, 1.224646799147353207E-16, -1.000000000000000000 ) ) ;
#201 = CARTESIAN_POINT ( 'NONE',  ( 8.728703347107835360E-16, 1.628999999999997561, 0.2500000000000000555 ) ) ;
#202 = EDGE_LOOP ( 'NONE', ( #229 ) ) ;
#203 = DIRECTION ( 'NONE',  ( -4.275831445896958607E-31, -1.000000000000000000, -1.224646799147353207E-16 ) ) ;
#204 = DIRECTION ( 'NONE',  ( -3.491481338843133355E-15, 1.224646799147353207E-16, -1.000000000000000000 ) ) ;
#205 = AXIS2_PLACEMENT_3D ( 'NONE', #99, #241, #59 ) ;
#206 = DATE_TIME_ROLE ( 'creation_date' ) ;
#207 = FACE_OUTER_BOUND ( 'NONE', #227, .T. ) ;
#208 = UNCERTAINTY_MEASURE_WITH_UNIT (LENGTH_MEASURE( 1.000000000000000082E-05 ), #68, 'distance_accuracy_value', 'NONE');
#209 = APPLICATION_CONTEXT ( 'configuration controlled 3d designs of mechanical parts and assemblies' ) ;
#210 = CARTESIAN_POINT ( 'NONE',  ( 8.728703347107827472E-16, -3.061616997868381169E-17, 0.2499999999999998335 ) ) ;
#211 = DIRECTION ( 'NONE',  ( -4.275831445896958607E-31, -1.000000000000000000, -1.224646799147353207E-16 ) ) ;
#212 = CC_DESIGN_PERSON_AND_ORGANIZATION_ASSIGNMENT ( #26, #133, ( #129 ) ) ;
#213 = CARTESIAN_POINT ( 'NONE',  ( 6.982962677686266711E-14, 1.628999999999998449, 20.00000000000000000 ) ) ;
#214 = LOCAL_TIME ( 14, 8, 20.00000000000000000, #23 ) ;
#215 = EDGE_LOOP ( 'NONE', ( #153 ) ) ;
#216 = PERSON_AND_ORGANIZATION ( #3, #5 ) ;
#217 = FACE_OUTER_BOUND ( 'NONE', #140, .T. ) ;
#218 = DIRECTION ( 'NONE',  ( 0.0000000000000000000, 1.000000000000000000, 0.0000000000000000000 ) ) ;
#219 = FACE_OUTER_BOUND ( 'NONE', #6, .T. ) ;
#220 = SHAPE_DEFINITION_REPRESENTATION ( #103, #154 ) ;
#221 = CARTESIAN_POINT ( 'NONE',  ( 1.946500846405046877E-13, -6.827405905246494765E-15, 55.75000000000000000 ) ) ;
#222 = EDGE_CURVE ( 'NONE', #109, #109, #148, .T. ) ;
#223 = APPROVAL_STATUS ( 'not_yet_approved' ) ;
#224 = ORIENTED_EDGE ( 'NONE', *, *, #230, .F. ) ;
#225 = AXIS2_PLACEMENT_3D ( 'NONE', #235, #74, #145 ) ;
#226 = PERSON_AND_ORGANIZATION_ROLE ( 'classification_officer' ) ;
#227 = EDGE_LOOP ( 'NONE', ( #51 ) ) ;
#228 = AXIS2_PLACEMENT_3D ( 'NONE', #233, #85, #157 ) ;
#229 = ORIENTED_EDGE ( 'NONE', *, *, #222, .T. ) ;
#230 = EDGE_CURVE ( 'NONE', #175, #175, #106, .T. ) ;
#231 = AXIS2_PLACEMENT_3D ( 'NONE', #18, #119, #211 ) ;
#232 = CC_DESIGN_APPROVAL ( #43, ( #46 ) ) ;
#233 = CARTESIAN_POINT ( 'NONE',  ( 7.212160012136103937E-14, -2.529685201390056109E-15, 20.65644725606862053 ) ) ;
#234 = ORIENTED_EDGE ( 'NONE', *, *, #113, .T. ) ;
#235 = CARTESIAN_POINT ( 'NONE',  ( 6.982962677686266711E-14, 1.221554342978080088E-32, 20.00000000000000000 ) ) ;
#236 = CLOSED_SHELL ( 'NONE', ( #22, #191, #134, #17, #126 ) ) ;
#237 = DIRECTION ( 'NONE',  ( -3.491481338843133355E-15, 1.224646799147353207E-16, -1.000000000000000000 ) ) ;
#238 = DIRECTION ( 'NONE',  ( -3.491481338843133355E-15, 1.224646799147353207E-16, -1.000000000000000000 ) ) ;
#239 = CC_DESIGN_DATE_AND_TIME_ASSIGNMENT ( #173, #206, ( #46 ) ) ;
#240 = DIRECTION ( 'NONE',  ( 4.275831445896958607E-31, 1.000000000000000000, 1.224646799147353207E-16 ) ) ;
#241 = DIRECTION ( 'NONE',  ( -3.491481338843133355E-15, 1.224646799147353207E-16, -1.000000000000000000 ) ) ;
#242 = ORIENTED_EDGE ( 'NONE', *, *, #188, .F. ) ;
#243 = APPROVAL ( #144, 'UNSPECIFIED' ) ;
ENDSEC;
END-ISO-10303-21;
