ISO-10303-21;
HEADER;
FILE_DESCRIPTION (( 'STEP AP203' ),
    '1' );
FILE_NAME ('969407.step',
    '2021-11-30T13:08:20',
    ( '' ),
    ( '' ),
    'SwSTEP 2.0',
    'SolidWorks 2019',
    '' );
FILE_SCHEMA (( 'CONFIG_CONTROL_DESIGN' ));
ENDSEC;

DATA;
#1 = CALENDAR_DATE ( 2021, 30, 11 ) ;
#2 = ORIENTED_EDGE ( 'NONE', *, *, #82, .F. ) ;
#3 = APPROVAL_STATUS ( 'not_yet_approved' ) ;
#4 = AXIS2_PLACEMENT_3D ( 'NONE', #32, #31, #14 ) ;
#5 = DIRECTION ( 'NONE',  ( -3.491481338843133355E-15, 1.224646799147353207E-16, -1.000000000000000000 ) ) ;
#6 = FACE_OUTER_BOUND ( 'NONE', #44, .T. ) ;
#7 = EDGE_CURVE ( 'NONE', #147, #147, #76, .T. ) ;
#8 = DIRECTION ( 'NONE',  ( 0.0000000000000000000, 1.000000000000000000, 0.0000000000000000000 ) ) ;
#9 = CONICAL_SURFACE ( 'NONE', #181, 1.249999999999996003, 0.5235987755982937086 ) ;
#10 = ORIENTED_EDGE ( 'NONE', *, *, #7, .T. ) ;
#11 = ADVANCED_FACE ( 'NONE', ( #140, #183 ), #111, .T. ) ;
#12 = DIRECTION ( 'NONE',  ( -3.491481338843133355E-15, 1.224646799147353207E-16, -1.000000000000000000 ) ) ;
#13 = PLANE ( 'NONE',  #227 ) ;
#14 = DIRECTION ( 'NONE',  ( -4.275831445896958607E-31, -1.000000000000000000, -1.224646799147353207E-16 ) ) ;
#15 = DIRECTION ( 'NONE',  ( 0.0000000000000000000, 1.000000000000000000, 0.0000000000000000000 ) ) ;
#16 = CIRCLE ( 'NONE', #48, 1.608999999999997543 ) ;
#17 = APPROVAL ( #3, 'UNSPECIFIED' ) ;
#18 = VERTEX_POINT ( 'NONE', #97 ) ;
#19 = CC_DESIGN_APPROVAL ( #190, ( #163 ) ) ;
#20 = DIRECTION ( 'NONE',  ( 4.275831445896957731E-31, 1.000000000000000000, 1.224646799147353454E-16 ) ) ;
#21 = PERSON_AND_ORGANIZATION_ROLE ( 'classification_officer' ) ;
#22 = PERSON_AND_ORGANIZATION ( #51, #66 ) ;
#23 = APPLICATION_PROTOCOL_DEFINITION ( 'international standard', 'config_control_design', 1994, #235 ) ;
#24 = DIRECTION ( 'NONE',  ( 3.491481338843133355E-15, -1.224646799147353207E-16, 1.000000000000000000 ) ) ;
#25 = AXIS2_PLACEMENT_3D ( 'NONE', #33, #139, #164 ) ;
#26 = CARTESIAN_POINT ( 'NONE',  ( 0.0000000000000000000, 0.0000000000000000000, 0.0000000000000000000 ) ) ;
#27 = CYLINDRICAL_SURFACE ( 'NONE', #80, 1.608999999999998876 ) ;
#28 = EDGE_LOOP ( 'NONE', ( #50 ) ) ;
#29 = CYLINDRICAL_SURFACE ( 'NONE', #152, 1.250000000000000666 ) ;
#30 = AXIS2_PLACEMENT_3D ( 'NONE', #41, #47, #125 ) ;
#31 = DIRECTION ( 'NONE',  ( 3.491481338843133355E-15, -1.224646799147353207E-16, 1.000000000000000000 ) ) ;
#32 = CARTESIAN_POINT ( 'NONE',  ( 6.982962677686266711E-14, 1.206556745151460581E-32, 20.00000000000000000 ) ) ;
#33 = CARTESIAN_POINT ( 'NONE',  ( 1.955229549752154679E-13, 7.498798913309223722E-33, 56.00000000000000000 ) ) ;
#34 = VERTEX_POINT ( 'NONE', #168 ) ;
#35 = CLOSED_SHELL ( 'NONE', ( #179, #11, #103, #240 ) ) ;
#36 = CC_DESIGN_PERSON_AND_ORGANIZATION_ASSIGNMENT ( #193, #83, ( #167 ) ) ;
#37 = APPLICATION_CONTEXT ( 'configuration controlled 3d designs of mechanical parts and assemblies' ) ;
#38 = ADVANCED_FACE ( 'NONE', ( #57 ), #95, .F. ) ;
#39 = LOCAL_TIME ( 14, 8, 20.00000000000000000, #208 ) ;
#40 = APPLICATION_PROTOCOL_DEFINITION ( 'international standard', 'config_control_design', 1994, #37 ) ;
#41 = CARTESIAN_POINT ( 'NONE',  ( 1.760088370558677289E-31, -6.173558956884939381E-33, 5.041093449297554155E-17 ) ) ;
#42 = MECHANICAL_CONTEXT ( 'NONE', #235, 'mechanical' ) ;
#43 = APPROVAL_STATUS ( 'not_yet_approved' ) ;
#44 = EDGE_LOOP ( 'NONE', ( #2 ) ) ;
#45 = APPROVAL_STATUS ( 'not_yet_approved' ) ;
#46 = ADVANCED_FACE ( 'NONE', ( #186 ), #55, .F. ) ;
#47 = DIRECTION ( 'NONE',  ( -3.491481338843133355E-15, 1.224646799147353207E-16, -1.000000000000000000 ) ) ;
#48 = AXIS2_PLACEMENT_3D ( 'NONE', #238, #93, #201 ) ;
#49 = EDGE_LOOP ( 'NONE', ( #159 ) ) ;
#50 = ORIENTED_EDGE ( 'NONE', *, *, #175, .T. ) ;
#51 = PERSON ( 'UNSPECIFIED', 'UNSPECIFIED', 'UNSPECIFIED', ('UNSPECIFIED'), ('UNSPECIFIED'), ('UNSPECIFIED') ) ;
#52 = AXIS2_PLACEMENT_3D ( 'NONE', #124, #242, #70 ) ;
#53 = ORIENTED_EDGE ( 'NONE', *, *, #135, .F. ) ;
#54 = VERTEX_POINT ( 'NONE', #189 ) ;
#55 = PLANE ( 'NONE',  #4 ) ;
#56 = APPROVAL_ROLE ( '' ) ;
#57 = FACE_OUTER_BOUND ( 'NONE', #110, .T. ) ;
#58 = DIRECTION ( 'NONE',  ( 3.491481338843133355E-15, -1.224646799147353207E-16, 1.000000000000000000 ) ) ;
#59 = CC_DESIGN_PERSON_AND_ORGANIZATION_ASSIGNMENT ( #119, #21, ( #148 ) ) ;
#60 = CALENDAR_DATE ( 2021, 30, 11 ) ;
#61 = DATE_TIME_ROLE ( 'classification_date' ) ;
#62 = EDGE_LOOP ( 'NONE', ( #200 ) ) ;
#63 = DATE_AND_TIME ( #99, #219 ) ;
#64 = CARTESIAN_POINT ( 'NONE',  ( 0.0000000000000000000, 0.0000000000000000000, 0.0000000000000000000 ) ) ;
#65 = CIRCLE ( 'NONE', #203, 1.249999999999996003 ) ;
#66 = ORGANIZATION ( 'UNSPECIFIED', 'UNSPECIFIED', '' ) ;
#67 = EDGE_LOOP ( 'NONE', ( #221 ) ) ;
#68 = ORIENTED_EDGE ( 'NONE', *, *, #175, .F. ) ;
#69 = CARTESIAN_POINT ( 'NONE',  ( 1.955229549752154679E-13, -6.858022075225178552E-15, 56.00000000000000000 ) ) ;
#70 = DIRECTION ( 'NONE',  ( 0.0000000000000000000, 1.000000000000000000, 0.0000000000000000000 ) ) ;
#71 = DIRECTION ( 'NONE',  ( 0.0000000000000000000, 1.000000000000000000, 0.0000000000000000000 ) ) ;
#72 = AXIS2_PLACEMENT_3D ( 'NONE', #182, #161, #217 ) ;
#73 = ORIENTED_EDGE ( 'NONE', *, *, #108, .F. ) ;
#74 = EDGE_LOOP ( 'NONE', ( #230 ) ) ;
#75 = FACE_OUTER_BOUND ( 'NONE', #74, .T. ) ;
#76 = CIRCLE ( 'NONE', #52, 1.608999999999999986 ) ;
#77 = VERTEX_POINT ( 'NONE', #222 ) ;
#78 = DIRECTION ( 'NONE',  ( 0.0000000000000000000, 0.0000000000000000000, 1.000000000000000000 ) ) ;
#79 = COORDINATED_UNIVERSAL_TIME_OFFSET ( 1, 0, .AHEAD. ) ;
#80 = AXIS2_PLACEMENT_3D ( 'NONE', #109, #114, #89 ) ;
#81 =( NAMED_UNIT ( * ) SI_UNIT ( $, .STERADIAN. ) SOLID_ANGLE_UNIT ( ) );
#82 = EDGE_CURVE ( 'NONE', #54, #54, #65, .T. ) ;
#83 = PERSON_AND_ORGANIZATION_ROLE ( 'design_owner' ) ;
#84 = PERSON_AND_ORGANIZATION ( #51, #66 ) ;
#85 = DIRECTION ( 'NONE',  ( 0.0000000000000000000, 1.000000000000000000, 0.0000000000000000000 ) ) ;
#86 = FACE_BOUND ( 'NONE', #145, .T. ) ;
#87 = AXIS2_PLACEMENT_3D ( 'NONE', #94, #12, #8 ) ;
#88 = AXIS2_PLACEMENT_3D ( 'NONE', #69, #5, #85 ) ;
#89 = DIRECTION ( 'NONE',  ( 4.275831445896958607E-31, 1.000000000000000000, 1.224646799147353207E-16 ) ) ;
#90 = CC_DESIGN_DATE_AND_TIME_ASSIGNMENT ( #63, #151, ( #157 ) ) ;
#91 = CARTESIAN_POINT ( 'NONE',  ( 7.200065165990992657E-14, -2.525442900435156326E-15, 20.62180623991724104 ) ) ;
#92 = CC_DESIGN_PERSON_AND_ORGANIZATION_ASSIGNMENT ( #243, #150, ( #163 ) ) ;
#93 = DIRECTION ( 'NONE',  ( -3.491481338843133355E-15, 1.224646799147353207E-16, -1.000000000000000000 ) ) ;
#94 = CARTESIAN_POINT ( 'NONE',  ( 1.946500846405046877E-13, -6.827405905246494765E-15, 55.75000000000000000 ) ) ;
#95 = PLANE ( 'NONE',  #25 ) ;
#96 = APPROVAL_DATE_TIME ( #174, #130 ) ;
#97 = CARTESIAN_POINT ( 'NONE',  ( 1.946500846405046877E-13, 1.249999999999998446, 55.75000000000000000 ) ) ;
#98 = CC_DESIGN_SECURITY_CLASSIFICATION ( #148, ( #163 ) ) ;
#99 = CALENDAR_DATE ( 2021, 30, 11 ) ;
#100 = PERSON_AND_ORGANIZATION_ROLE ( 'creator' ) ;
#101 = CIRCLE ( 'NONE', #30, 1.359000000000000430 ) ;
#102 = AXIS2_PLACEMENT_3D ( 'NONE', #64, #78, #194 ) ;
#103 = ADVANCED_FACE ( 'NONE', ( #197, #126 ), #27, .T. ) ;
#104 = DATE_AND_TIME ( #195, #196 ) ;
#105 = CIRCLE ( 'NONE', #87, 1.250000000000005329 ) ;
#106 = FACE_OUTER_BOUND ( 'NONE', #241, .T. ) ;
#107 = PRODUCT_RELATED_PRODUCT_CATEGORY ( 'detail', '', ( #167 ) ) ;
#108 = EDGE_CURVE ( 'NONE', #18, #18, #105, .T. ) ;
#109 = CARTESIAN_POINT ( 'NONE',  ( 0.0000000000000000000, 0.0000000000000000000, 0.0000000000000000000 ) ) ;
#110 = EDGE_LOOP ( 'NONE', ( #116 ) ) ;
#111 = CONICAL_SURFACE ( 'NONE', #72, 1.608999999999997543, 0.7853981633974430610 ) ;
#112 = APPROVAL_PERSON_ORGANIZATION ( #136, #130, #56 ) ;
#113 = MANIFOLD_SOLID_BREP ( 'Corps-Déplacer/Copier1[2]', #35 ) ;
#114 = DIRECTION ( 'NONE',  ( -3.491481338843133355E-15, 1.224646799147353207E-16, -1.000000000000000000 ) ) ;
#115 = EDGE_LOOP ( 'NONE', ( #68 ) ) ;
#116 = ORIENTED_EDGE ( 'NONE', *, *, #166, .F. ) ;
#117 = CARTESIAN_POINT ( 'NONE',  ( 6.982962677686266711E-14, 1.206556745151460581E-32, 20.00000000000000000 ) ) ;
#118 = COORDINATED_UNIVERSAL_TIME_OFFSET ( 1, 0, .AHEAD. ) ;
#119 = PERSON_AND_ORGANIZATION ( #51, #66 ) ;
#120 = APPROVAL_PERSON_ORGANIZATION ( #211, #190, #226 ) ;
#121 = UNCERTAINTY_MEASURE_WITH_UNIT (LENGTH_MEASURE( 1.000000000000000082E-05 ), #210, 'distance_accuracy_value', 'NONE');
#122 = DATE_AND_TIME ( #60, #39 ) ;
#123 = ADVANCED_FACE ( 'NONE', ( #160, #86 ), #9, .T. ) ;
#124 = CARTESIAN_POINT ( 'NONE',  ( 6.982962677686266711E-14, -2.449293598294706513E-15, 20.00000000000000000 ) ) ;
#125 = DIRECTION ( 'NONE',  ( 4.275831445896958607E-31, 1.000000000000000000, 1.224646799147353207E-16 ) ) ;
#126 = FACE_OUTER_BOUND ( 'NONE', #205, .T. ) ;
#127 = ORIENTED_EDGE ( 'NONE', *, *, #82, .T. ) ;
#128 = VERTEX_POINT ( 'NONE', #187 ) ;
#129 = ORIENTED_EDGE ( 'NONE', *, *, #108, .T. ) ;
#130 = APPROVAL ( #43, 'UNSPECIFIED' ) ;
#131 = CARTESIAN_POINT ( 'NONE',  ( 6.982962677686266711E-14, 1.608999999999997543, 20.00000000000000000 ) ) ;
#132 = CC_DESIGN_PERSON_AND_ORGANIZATION_ASSIGNMENT ( #134, #212, ( #157 ) ) ;
#133 = CC_DESIGN_PERSON_AND_ORGANIZATION_ASSIGNMENT ( #22, #100, ( #163 ) ) ;
#134 = PERSON_AND_ORGANIZATION ( #51, #66 ) ;
#135 = EDGE_CURVE ( 'NONE', #34, #34, #214, .T. ) ;
#136 = PERSON_AND_ORGANIZATION ( #51, #66 ) ;
#137 = APPROVAL_ROLE ( '' ) ;
#138 = FACE_OUTER_BOUND ( 'NONE', #28, .T. ) ;
#139 = DIRECTION ( 'NONE',  ( -3.491481338843133355E-15, 1.224646799147353207E-16, -1.000000000000000000 ) ) ;
#140 = FACE_BOUND ( 'NONE', #115, .T. ) ;
#141 = DIRECTION ( 'NONE',  ( 0.0000000000000000000, 1.000000000000000000, 0.0000000000000000000 ) ) ;
#142 = CIRCLE ( 'NONE', #191, 1.000000000000005551 ) ;
#143 = EDGE_LOOP ( 'NONE', ( #154 ) ) ;
#144 = CC_DESIGN_DATE_AND_TIME_ASSIGNMENT ( #229, #61, ( #148 ) ) ;
#145 = EDGE_LOOP ( 'NONE', ( #127 ) ) ;
#146 = SHAPE_DEFINITION_REPRESENTATION ( #199, #149 ) ;
#147 = VERTEX_POINT ( 'NONE', #131 ) ;
#148 = SECURITY_CLASSIFICATION ( '', '', #192 ) ;
#149 = ADVANCED_BREP_SHAPE_REPRESENTATION ( '969407', ( #188, #113, #102 ), #169 ) ;
#150 = PERSON_AND_ORGANIZATION_ROLE ( 'design_supplier' ) ;
#151 = DATE_TIME_ROLE ( 'creation_date' ) ;
#152 = AXIS2_PLACEMENT_3D ( 'NONE', #26, #177, #20 ) ;
#153 = APPROVAL_DATE_TIME ( #104, #190 ) ;
#154 = ORIENTED_EDGE ( 'NONE', *, *, #184, .T. ) ;
#155 = CLOSED_SHELL ( 'NONE', ( #46, #123, #232, #220, #38 ) ) ;
#156 = FACE_OUTER_BOUND ( 'NONE', #234, .T. ) ;
#157 = PRODUCT_DEFINITION ( 'UNKNOWN', '', #163, #173 ) ;
#158 = DIRECTION ( 'NONE',  ( -4.275831445896958607E-31, -1.000000000000000000, -1.224646799147353207E-16 ) ) ;
#159 = ORIENTED_EDGE ( 'NONE', *, *, #135, .T. ) ;
#160 = FACE_OUTER_BOUND ( 'NONE', #180, .T. ) ;
#161 = DIRECTION ( 'NONE',  ( 3.491481338843133355E-15, -1.224646799147353207E-16, 1.000000000000000000 ) ) ;
#162 = DIRECTION ( 'NONE',  ( 0.0000000000000000000, 1.000000000000000000, 0.0000000000000000000 ) ) ;
#163 = PRODUCT_DEFINITION_FORMATION_WITH_SPECIFIED_SOURCE ( 'ANY', '', #167, .NOT_KNOWN. ) ;
#164 = DIRECTION ( 'NONE',  ( 4.275831445896958607E-31, 1.000000000000000000, 1.224646799147353207E-16 ) ) ;
#165 = PLANE ( 'NONE',  #224 ) ;
#166 = EDGE_CURVE ( 'NONE', #77, #77, #142, .T. ) ;
#167 = PRODUCT ( '969407', '969407', '', ( #42 ) ) ;
#168 = CARTESIAN_POINT ( 'NONE',  ( 6.982962677686266711E-14, 1.608999999999997543, 20.00000000000000000 ) ) ;
#169 =( GEOMETRIC_REPRESENTATION_CONTEXT ( 3 ) GLOBAL_UNCERTAINTY_ASSIGNED_CONTEXT ( ( #121 ) ) GLOBAL_UNIT_ASSIGNED_CONTEXT ( ( #210, #171, #81 ) ) REPRESENTATION_CONTEXT ( 'NONE', 'WORKASPACE' ) );
#170 = DIRECTION ( 'NONE',  ( -4.275831445896958607E-31, -1.000000000000000000, -1.224646799147353207E-16 ) ) ;
#171 =( NAMED_UNIT ( * ) PLANE_ANGLE_UNIT ( ) SI_UNIT ( $, .RADIAN. ) );
#172 = COORDINATED_UNIVERSAL_TIME_OFFSET ( 1, 0, .AHEAD. ) ;
#173 = DESIGN_CONTEXT ( 'detailed design', #37, 'design' ) ;
#174 = DATE_AND_TIME ( #198, #204 ) ;
#175 = EDGE_CURVE ( 'NONE', #128, #128, #101, .T. ) ;
#176 = FACE_BOUND ( 'NONE', #62, .T. ) ;
#177 = DIRECTION ( 'NONE',  ( -3.491481338843133355E-15, 1.224646799147353207E-16, -1.000000000000000000 ) ) ;
#178 = DIRECTION ( 'NONE',  ( -3.491481338843133355E-15, 1.224646799147353207E-16, -1.000000000000000000 ) ) ;
#179 = ADVANCED_FACE ( 'NONE', ( #138 ), #13, .F. ) ;
#180 = EDGE_LOOP ( 'NONE', ( #53 ) ) ;
#181 = AXIS2_PLACEMENT_3D ( 'NONE', #91, #202, #141 ) ;
#182 = CARTESIAN_POINT ( 'NONE',  ( 8.728703347107827472E-16, -3.061616997868381169E-17, 0.2499999999999998335 ) ) ;
#183 = FACE_OUTER_BOUND ( 'NONE', #143, .T. ) ;
#184 = EDGE_CURVE ( 'NONE', #206, #206, #16, .T. ) ;
#185 = COORDINATED_UNIVERSAL_TIME_OFFSET ( 1, 0, .AHEAD. ) ;
#186 = FACE_OUTER_BOUND ( 'NONE', #49, .T. ) ;
#187 = CARTESIAN_POINT ( 'NONE',  ( 7.570943305532645426E-31, 1.359000000000000430, 2.168404344971008868E-16 ) ) ;
#188 = MANIFOLD_SOLID_BREP ( 'Corps-Déplacer/Copier1[1]', #155 ) ;
#189 = CARTESIAN_POINT ( 'NONE',  ( 7.200065165990992657E-14, 1.249999999999993339, 20.62180623991724104 ) ) ;
#190 = APPROVAL ( #45, 'UNSPECIFIED' ) ;
#191 = AXIS2_PLACEMENT_3D ( 'NONE', #236, #216, #71 ) ;
#192 = SECURITY_CLASSIFICATION_LEVEL ( 'unclassified' ) ;
#193 = PERSON_AND_ORGANIZATION ( #51, #66 ) ;
#194 = DIRECTION ( 'NONE',  ( 1.000000000000000000, 0.0000000000000000000, 0.0000000000000000000 ) ) ;
#195 = CALENDAR_DATE ( 2021, 30, 11 ) ;
#196 = LOCAL_TIME ( 14, 8, 20.00000000000000000, #118 ) ;
#197 = FACE_OUTER_BOUND ( 'NONE', #67, .T. ) ;
#198 = CALENDAR_DATE ( 2021, 30, 11 ) ;
#199 = PRODUCT_DEFINITION_SHAPE ( 'NONE', 'NONE',  #157 ) ;
#200 = ORIENTED_EDGE ( 'NONE', *, *, #166, .T. ) ;
#201 = DIRECTION ( 'NONE',  ( 4.787892963050935102E-31, 1.000000000000000000, 1.347672060267875706E-16 ) ) ;
#202 = DIRECTION ( 'NONE',  ( -3.491481338843133355E-15, 1.224646799147353207E-16, -1.000000000000000000 ) ) ;
#203 = AXIS2_PLACEMENT_3D ( 'NONE', #207, #178, #15 ) ;
#204 = LOCAL_TIME ( 14, 8, 20.00000000000000000, #185 ) ;
#205 = EDGE_LOOP ( 'NONE', ( #10 ) ) ;
#206 = VERTEX_POINT ( 'NONE', #225 ) ;
#207 = CARTESIAN_POINT ( 'NONE',  ( 7.200065165990992657E-14, -2.525442900435156326E-15, 20.62180623991724104 ) ) ;
#208 = COORDINATED_UNIVERSAL_TIME_OFFSET ( 1, 0, .AHEAD. ) ;
#209 = AXIS2_PLACEMENT_3D ( 'NONE', #239, #218, #162 ) ;
#210 =( LENGTH_UNIT ( ) NAMED_UNIT ( * ) SI_UNIT ( .MILLI., .METRE. ) );
#211 = PERSON_AND_ORGANIZATION ( #51, #66 ) ;
#212 = PERSON_AND_ORGANIZATION_ROLE ( 'creator' ) ;
#213 = CARTESIAN_POINT ( 'NONE',  ( 8.800441852793386443E-32, -3.086779478442469690E-33, 2.520546724648777077E-17 ) ) ;
#214 = CIRCLE ( 'NONE', #209, 1.608999999999999986 ) ;
#215 = APPROVAL_PERSON_ORGANIZATION ( #84, #17, #137 ) ;
#216 = DIRECTION ( 'NONE',  ( -3.491481338843133355E-15, 1.224646799147353207E-16, -1.000000000000000000 ) ) ;
#217 = DIRECTION ( 'NONE',  ( -4.787892963050935102E-31, -1.000000000000000000, -1.347672060267875706E-16 ) ) ;
#218 = DIRECTION ( 'NONE',  ( -3.491481338843133355E-15, 1.224646799147353207E-16, -1.000000000000000000 ) ) ;
#219 = LOCAL_TIME ( 14, 8, 20.00000000000000000, #79 ) ;
#220 = ADVANCED_FACE ( 'NONE', ( #106, #176 ), #223, .T. ) ;
#221 = ORIENTED_EDGE ( 'NONE', *, *, #184, .F. ) ;
#222 = CARTESIAN_POINT ( 'NONE',  ( 1.955229549752154679E-13, 0.9999999999999985567, 56.00000000000000000 ) ) ;
#223 = CONICAL_SURFACE ( 'NONE', #88, 1.000000000000005551, 0.7853981633974473908 ) ;
#224 = AXIS2_PLACEMENT_3D ( 'NONE', #117, #58, #170 ) ;
#225 = CARTESIAN_POINT ( 'NONE',  ( 8.728703347107835360E-16, 1.608999999999997543, 0.2500000000000000555 ) ) ;
#226 = APPROVAL_ROLE ( '' ) ;
#227 = AXIS2_PLACEMENT_3D ( 'NONE', #213, #24, #158 ) ;
#228 = CC_DESIGN_APPROVAL ( #130, ( #148 ) ) ;
#229 = DATE_AND_TIME ( #1, #233 ) ;
#230 = ORIENTED_EDGE ( 'NONE', *, *, #7, .F. ) ;
#231 = APPROVAL_DATE_TIME ( #122, #17 ) ;
#232 = ADVANCED_FACE ( 'NONE', ( #6, #156 ), #29, .T. ) ;
#233 = LOCAL_TIME ( 14, 8, 20.00000000000000000, #172 ) ;
#234 = EDGE_LOOP ( 'NONE', ( #129 ) ) ;
#235 = APPLICATION_CONTEXT ( 'configuration controlled 3d designs of mechanical parts and assemblies' ) ;
#236 = CARTESIAN_POINT ( 'NONE',  ( 1.955229549752154679E-13, -6.858022075225178552E-15, 56.00000000000000000 ) ) ;
#237 = CC_DESIGN_APPROVAL ( #17, ( #157 ) ) ;
#238 = CARTESIAN_POINT ( 'NONE',  ( 8.728703347107827472E-16, -3.061616997868381169E-17, 0.2499999999999998335 ) ) ;
#239 = CARTESIAN_POINT ( 'NONE',  ( 6.982962677686266711E-14, -2.449293598294706513E-15, 20.00000000000000000 ) ) ;
#240 = ADVANCED_FACE ( 'NONE', ( #75 ), #165, .T. ) ;
#241 = EDGE_LOOP ( 'NONE', ( #73 ) ) ;
#242 = DIRECTION ( 'NONE',  ( -3.491481338843133355E-15, 1.224646799147353207E-16, -1.000000000000000000 ) ) ;
#243 = PERSON_AND_ORGANIZATION ( #51, #66 ) ;
ENDSEC;
END-ISO-10303-21;
