ISO-10303-21;
HEADER;
FILE_DESCRIPTION (( 'STEP AP203' ),
    '1' );
FILE_NAME ('969406.step',
    '2021-11-30T13:08:19',
    ( '' ),
    ( '' ),
    'SwSTEP 2.0',
    'SolidWorks 2019',
    '' );
FILE_SCHEMA (( 'CONFIG_CONTROL_DESIGN' ));
ENDSEC;

DATA;
#1 = DIRECTION ( 'NONE',  ( 0.0000000000000000000, 1.000000000000000000, 0.0000000000000000000 ) ) ;
#2 = VERTEX_POINT ( 'NONE', #237 ) ;
#3 = ORIENTED_EDGE ( 'NONE', *, *, #112, .F. ) ;
#4 = AXIS2_PLACEMENT_3D ( 'NONE', #87, #165, #67 ) ;
#5 = DIRECTION ( 'NONE',  ( -3.491481338843133355E-15, 1.224646799147353207E-16, -1.000000000000000000 ) ) ;
#6 = CIRCLE ( 'NONE', #90, 1.603999999999997872 ) ;
#7 = DIRECTION ( 'NONE',  ( 3.491481338843133355E-15, -1.224646799147353207E-16, 1.000000000000000000 ) ) ;
#8 = FACE_OUTER_BOUND ( 'NONE', #73, .T. ) ;
#9 = CARTESIAN_POINT ( 'NONE',  ( 8.728703347107835360E-16, 1.603999999999997872, 0.2500000000000000555 ) ) ;
#10 = CARTESIAN_POINT ( 'NONE',  ( 6.982962677686265448E-14, -2.449293598294706119E-15, 19.99999999999999645 ) ) ;
#11 = CARTESIAN_POINT ( 'NONE',  ( 7.197041454454715784E-14, -2.524382325196431677E-15, 20.61314598587939884 ) ) ;
#12 = DIRECTION ( 'NONE',  ( -3.491481338843133355E-15, 1.224646799147353207E-16, -1.000000000000000000 ) ) ;
#13 = EDGE_CURVE ( 'NONE', #91, #91, #210, .T. ) ;
#14 = EDGE_LOOP ( 'NONE', ( #140 ) ) ;
#15 = PERSON_AND_ORGANIZATION_ROLE ( 'classification_officer' ) ;
#16 = APPROVAL_ROLE ( '' ) ;
#17 = EDGE_CURVE ( 'NONE', #2, #2, #220, .T. ) ;
#18 = CALENDAR_DATE ( 2021, 30, 11 ) ;
#19 = CALENDAR_DATE ( 2021, 30, 11 ) ;
#20 = DATE_AND_TIME ( #195, #122 ) ;
#21 = ORIENTED_EDGE ( 'NONE', *, *, #143, .F. ) ;
#22 = CONICAL_SURFACE ( 'NONE', #200, 1.249999999999996003, 0.5235987755982929315 ) ;
#23 = ADVANCED_FACE ( 'NONE', ( #78, #127 ), #149, .T. ) ;
#24 = EDGE_LOOP ( 'NONE', ( #146 ) ) ;
#25 = ORIENTED_EDGE ( 'NONE', *, *, #17, .T. ) ;
#26 = APPROVAL_PERSON_ORGANIZATION ( #93, #83, #219 ) ;
#27 = PRODUCT ( '969406', '969406', '', ( #184 ) ) ;
#28 = DIRECTION ( 'NONE',  ( -3.491481338843133355E-15, 1.224646799147353207E-16, -1.000000000000000000 ) ) ;
#29 = CARTESIAN_POINT ( 'NONE',  ( 1.946500846405046877E-13, 1.249999999999998446, 55.75000000000000000 ) ) ;
#30 = CARTESIAN_POINT ( 'NONE',  ( 6.982962677686265448E-14, 1.603999999999999426, 19.99999999999999645 ) ) ;
#31 = FACE_OUTER_BOUND ( 'NONE', #158, .T. ) ;
#32 = VERTEX_POINT ( 'NONE', #89 ) ;
#33 = CARTESIAN_POINT ( 'NONE',  ( 4.676205416660403386E-31, -1.640192067463880958E-32, 1.339318461948250487E-16 ) ) ;
#34 = APPROVAL_DATE_TIME ( #157, #83 ) ;
#35 = AXIS2_PLACEMENT_3D ( 'NONE', #106, #45, #80 ) ;
#36 = AXIS2_PLACEMENT_3D ( 'NONE', #228, #101, #159 ) ;
#37 = PRODUCT_RELATED_PRODUCT_CATEGORY ( 'detail', '', ( #27 ) ) ;
#38 = PERSON_AND_ORGANIZATION_ROLE ( 'design_supplier' ) ;
#39 = CC_DESIGN_SECURITY_CLASSIFICATION ( #41, ( #209 ) ) ;
#40 = COORDINATED_UNIVERSAL_TIME_OFFSET ( 1, 0, .AHEAD. ) ;
#41 = SECURITY_CLASSIFICATION ( '', '', #121 ) ;
#42 = CC_DESIGN_DATE_AND_TIME_ASSIGNMENT ( #99, #139, ( #134 ) ) ;
#43 = AXIS2_PLACEMENT_3D ( 'NONE', #161, #164, #142 ) ;
#44 = EDGE_CURVE ( 'NONE', #230, #230, #208, .T. ) ;
#45 = DIRECTION ( 'NONE',  ( -3.491481338843133355E-15, 1.224646799147353207E-16, -1.000000000000000000 ) ) ;
#46 = APPROVAL ( #156, 'UNSPECIFIED' ) ;
#47 = PRODUCT_DEFINITION_SHAPE ( 'NONE', 'NONE',  #134 ) ;
#48 = CYLINDRICAL_SURFACE ( 'NONE', #54, 1.250000000000000666 ) ;
#49 = ADVANCED_FACE ( 'NONE', ( #82, #211 ), #155, .T. ) ;
#50 = DIRECTION ( 'NONE',  ( -4.275831445896958607E-31, -1.000000000000000000, -1.224646799147353207E-16 ) ) ;
#51 = PLANE ( 'NONE',  #136 ) ;
#52 = CARTESIAN_POINT ( 'NONE',  ( 0.0000000000000000000, 0.0000000000000000000, 0.0000000000000000000 ) ) ;
#53 = APPROVAL_ROLE ( '' ) ;
#54 = AXIS2_PLACEMENT_3D ( 'NONE', #185, #170, #72 ) ;
#55 = COORDINATED_UNIVERSAL_TIME_OFFSET ( 1, 0, .AHEAD. ) ;
#56 = CARTESIAN_POINT ( 'NONE',  ( 1.955229549752154679E-13, -6.858022075225178552E-15, 56.00000000000000000 ) ) ;
#57 = CC_DESIGN_PERSON_AND_ORGANIZATION_ASSIGNMENT ( #204, #125, ( #209 ) ) ;
#58 = ORIENTED_EDGE ( 'NONE', *, *, #44, .T. ) ;
#59 = FACE_OUTER_BOUND ( 'NONE', #103, .T. ) ;
#60 = ORIENTED_EDGE ( 'NONE', *, *, #116, .F. ) ;
#61 = DIRECTION ( 'NONE',  ( -3.491481338843133355E-15, 1.224646799147353207E-16, -1.000000000000000000 ) ) ;
#62 = AXIS2_PLACEMENT_3D ( 'NONE', #201, #7, #131 ) ;
#63 = APPLICATION_PROTOCOL_DEFINITION ( 'international standard', 'config_control_design', 1994, #229 ) ;
#64 = CARTESIAN_POINT ( 'NONE',  ( 8.728703347107827472E-16, -3.061616997868381169E-17, 0.2499999999999998335 ) ) ;
#65 =( NAMED_UNIT ( * ) PLANE_ANGLE_UNIT ( ) SI_UNIT ( $, .RADIAN. ) );
#66 = MANIFOLD_SOLID_BREP ( 'Corps-Déplacer/Copier1[2]', #128 ) ;
#67 = DIRECTION ( 'NONE',  ( 1.000000000000000000, 0.0000000000000000000, 0.0000000000000000000 ) ) ;
#68 = DIRECTION ( 'NONE',  ( -3.491481338843133355E-15, 1.224646799147353207E-16, -1.000000000000000000 ) ) ;
#69 = LOCAL_TIME ( 14, 8, 19.00000000000000000, #40 ) ;
#70 = CARTESIAN_POINT ( 'NONE',  ( 1.955229549752154679E-13, 0.9999999999999985567, 56.00000000000000000 ) ) ;
#71 = FACE_OUTER_BOUND ( 'NONE', #239, .T. ) ;
#72 = DIRECTION ( 'NONE',  ( 4.275831445896957731E-31, 1.000000000000000000, 1.224646799147353454E-16 ) ) ;
#73 = EDGE_LOOP ( 'NONE', ( #77 ) ) ;
#74 = DATE_AND_TIME ( #18, #232 ) ;
#75 = PERSON_AND_ORGANIZATION ( #124, #221 ) ;
#76 = AXIS2_PLACEMENT_3D ( 'NONE', #10, #12, #115 ) ;
#77 = ORIENTED_EDGE ( 'NONE', *, *, #143, .T. ) ;
#78 = FACE_OUTER_BOUND ( 'NONE', #126, .T. ) ;
#79 = CC_DESIGN_APPROVAL ( #46, ( #41 ) ) ;
#80 = DIRECTION ( 'NONE',  ( 4.275831445896958607E-31, 1.000000000000000000, 1.224646799147353207E-16 ) ) ;
#81 = DIRECTION ( 'NONE',  ( 4.275831445896959482E-31, 1.000000000000000000, 1.224646799147353207E-16 ) ) ;
#82 = FACE_BOUND ( 'NONE', #135, .T. ) ;
#83 = APPROVAL ( #223, 'UNSPECIFIED' ) ;
#84 = AXIS2_PLACEMENT_3D ( 'NONE', #104, #61, #1 ) ;
#85 =( GEOMETRIC_REPRESENTATION_CONTEXT ( 3 ) GLOBAL_UNCERTAINTY_ASSIGNED_CONTEXT ( ( #123 ) ) GLOBAL_UNIT_ASSIGNED_CONTEXT ( ( #233, #65, #217 ) ) REPRESENTATION_CONTEXT ( 'NONE', 'WORKASPACE' ) );
#86 = DIRECTION ( 'NONE',  ( -4.275831445896958607E-31, -1.000000000000000000, -1.224646799147353207E-16 ) ) ;
#87 = CARTESIAN_POINT ( 'NONE',  ( 0.0000000000000000000, 0.0000000000000000000, 0.0000000000000000000 ) ) ;
#88 = PLANE ( 'NONE',  #177 ) ;
#89 = CARTESIAN_POINT ( 'NONE',  ( 6.982962677686265448E-14, 1.603999999999999426, 19.99999999999999645 ) ) ;
#90 = AXIS2_PLACEMENT_3D ( 'NONE', #64, #151, #207 ) ;
#91 = VERTEX_POINT ( 'NONE', #29 ) ;
#92 = FACE_OUTER_BOUND ( 'NONE', #24, .T. ) ;
#93 = PERSON_AND_ORGANIZATION ( #124, #221 ) ;
#94 = CYLINDRICAL_SURFACE ( 'NONE', #141, 1.603999999999999870 ) ;
#95 = DIRECTION ( 'NONE',  ( 0.0000000000000000000, 1.000000000000000000, 0.0000000000000000000 ) ) ;
#96 = CALENDAR_DATE ( 2021, 30, 11 ) ;
#97 = EDGE_CURVE ( 'NONE', #181, #181, #6, .T. ) ;
#98 = SHAPE_DEFINITION_REPRESENTATION ( #47, #186 ) ;
#99 = DATE_AND_TIME ( #96, #107 ) ;
#100 = EDGE_LOOP ( 'NONE', ( #138 ) ) ;
#101 = DIRECTION ( 'NONE',  ( -3.491481338843133355E-15, 1.224646799147353207E-16, -1.000000000000000000 ) ) ;
#102 = APPROVAL_STATUS ( 'not_yet_approved' ) ;
#103 = EDGE_LOOP ( 'NONE', ( #222 ) ) ;
#104 = CARTESIAN_POINT ( 'NONE',  ( 1.946500846405046877E-13, -6.827405905246494765E-15, 55.75000000000000000 ) ) ;
#105 = ORIENTED_EDGE ( 'NONE', *, *, #116, .T. ) ;
#106 = CARTESIAN_POINT ( 'NONE',  ( 1.955229549752154679E-13, 7.498798913309223722E-33, 56.00000000000000000 ) ) ;
#107 = LOCAL_TIME ( 14, 8, 19.00000000000000000, #160 ) ;
#108 = PLANE ( 'NONE',  #35 ) ;
#109 = DIRECTION ( 'NONE',  ( -3.491481338843133355E-15, 1.224646799147353207E-16, -1.000000000000000000 ) ) ;
#110 = FACE_OUTER_BOUND ( 'NONE', #129, .T. ) ;
#111 = CC_DESIGN_PERSON_AND_ORGANIZATION_ASSIGNMENT ( #120, #38, ( #209 ) ) ;
#112 = EDGE_CURVE ( 'NONE', #154, #154, #238, .T. ) ;
#113 = APPROVAL_PERSON_ORGANIZATION ( #172, #188, #16 ) ;
#114 = DIRECTION ( 'NONE',  ( 0.0000000000000000000, 1.000000000000000000, 0.0000000000000000000 ) ) ;
#115 = DIRECTION ( 'NONE',  ( 0.0000000000000000000, 1.000000000000000000, 0.0000000000000000000 ) ) ;
#116 = EDGE_CURVE ( 'NONE', #132, #132, #182, .T. ) ;
#117 = CIRCLE ( 'NONE', #76, 1.604000000000001869 ) ;
#118 = PERSON_AND_ORGANIZATION ( #124, #221 ) ;
#119 = CC_DESIGN_PERSON_AND_ORGANIZATION_ASSIGNMENT ( #118, #15, ( #41 ) ) ;
#120 = PERSON_AND_ORGANIZATION ( #124, #221 ) ;
#121 = SECURITY_CLASSIFICATION_LEVEL ( 'unclassified' ) ;
#122 = LOCAL_TIME ( 14, 8, 19.00000000000000000, #192 ) ;
#123 = UNCERTAINTY_MEASURE_WITH_UNIT (LENGTH_MEASURE( 1.000000000000000082E-05 ), #233, 'distance_accuracy_value', 'NONE');
#124 = PERSON ( 'UNSPECIFIED', 'UNSPECIFIED', 'UNSPECIFIED', ('UNSPECIFIED'), ('UNSPECIFIED'), ('UNSPECIFIED') ) ;
#125 = PERSON_AND_ORGANIZATION_ROLE ( 'creator' ) ;
#126 = EDGE_LOOP ( 'NONE', ( #171 ) ) ;
#127 = FACE_BOUND ( 'NONE', #145, .T. ) ;
#128 = CLOSED_SHELL ( 'NONE', ( #224, #49, #190, #198 ) ) ;
#129 = EDGE_LOOP ( 'NONE', ( #25 ) ) ;
#130 = LOCAL_TIME ( 14, 8, 19.00000000000000000, #55 ) ;
#131 = DIRECTION ( 'NONE',  ( -4.275831445896958607E-31, -1.000000000000000000, -1.224646799147353207E-16 ) ) ;
#132 = VERTEX_POINT ( 'NONE', #30 ) ;
#133 = PLANE ( 'NONE',  #62 ) ;
#134 = PRODUCT_DEFINITION ( 'UNKNOWN', '', #209, #241 ) ;
#135 = EDGE_LOOP ( 'NONE', ( #153 ) ) ;
#136 = AXIS2_PLACEMENT_3D ( 'NONE', #33, #168, #86 ) ;
#137 = PERSON_AND_ORGANIZATION_ROLE ( 'design_owner' ) ;
#138 = ORIENTED_EDGE ( 'NONE', *, *, #112, .T. ) ;
#139 = DATE_TIME_ROLE ( 'creation_date' ) ;
#140 = ORIENTED_EDGE ( 'NONE', *, *, #44, .F. ) ;
#141 = AXIS2_PLACEMENT_3D ( 'NONE', #52, #68, #150 ) ;
#142 = DIRECTION ( 'NONE',  ( -4.802817816427028285E-31, -1.000000000000000000, -1.351873033024321490E-16 ) ) ;
#143 = EDGE_CURVE ( 'NONE', #32, #32, #117, .T. ) ;
#144 = AXIS2_PLACEMENT_3D ( 'NONE', #197, #162, #148 ) ;
#145 = EDGE_LOOP ( 'NONE', ( #58 ) ) ;
#146 = ORIENTED_EDGE ( 'NONE', *, *, #13, .T. ) ;
#147 = ADVANCED_FACE ( 'NONE', ( #71, #92 ), #48, .T. ) ;
#148 = DIRECTION ( 'NONE',  ( 0.0000000000000000000, 1.000000000000000000, 0.0000000000000000000 ) ) ;
#149 = CONICAL_SURFACE ( 'NONE', #36, 1.000000000000005551, 0.7853981633974473908 ) ;
#150 = DIRECTION ( 'NONE',  ( 4.275831445896958607E-31, 1.000000000000000000, 1.224646799147353454E-16 ) ) ;
#151 = DIRECTION ( 'NONE',  ( -3.491481338843133355E-15, 1.224646799147353207E-16, -1.000000000000000000 ) ) ;
#152 = CC_DESIGN_APPROVAL ( #188, ( #209 ) ) ;
#153 = ORIENTED_EDGE ( 'NONE', *, *, #17, .F. ) ;
#154 = VERTEX_POINT ( 'NONE', #166 ) ;
#155 = CONICAL_SURFACE ( 'NONE', #43, 1.603999999999997872, 0.7853981633974435050 ) ;
#156 = APPROVAL_STATUS ( 'not_yet_approved' ) ;
#157 = DATE_AND_TIME ( #243, #130 ) ;
#158 = EDGE_LOOP ( 'NONE', ( #60 ) ) ;
#159 = DIRECTION ( 'NONE',  ( 0.0000000000000000000, 1.000000000000000000, 0.0000000000000000000 ) ) ;
#160 = COORDINATED_UNIVERSAL_TIME_OFFSET ( 1, 0, .AHEAD. ) ;
#161 = CARTESIAN_POINT ( 'NONE',  ( 8.728703347107827472E-16, -3.061616997868381169E-17, 0.2499999999999998335 ) ) ;
#162 = DIRECTION ( 'NONE',  ( -3.491481338843133355E-15, 1.224646799147353207E-16, -1.000000000000000000 ) ) ;
#163 = FACE_BOUND ( 'NONE', #100, .T. ) ;
#164 = DIRECTION ( 'NONE',  ( 3.491481338843133355E-15, -1.224646799147353207E-16, 1.000000000000000000 ) ) ;
#165 = DIRECTION ( 'NONE',  ( 0.0000000000000000000, 0.0000000000000000000, 1.000000000000000000 ) ) ;
#166 = CARTESIAN_POINT ( 'NONE',  ( 7.197041454454715784E-14, 1.249999999999993339, 20.61314598587939884 ) ) ;
#167 = ADVANCED_FACE ( 'NONE', ( #183 ), #108, .F. ) ;
#168 = DIRECTION ( 'NONE',  ( 3.491481338843133355E-15, -1.224646799147353207E-16, 1.000000000000000000 ) ) ;
#169 = ORIENTED_EDGE ( 'NONE', *, *, #97, .T. ) ;
#170 = DIRECTION ( 'NONE',  ( -3.491481338843133355E-15, 1.224646799147353207E-16, -1.000000000000000000 ) ) ;
#171 = ORIENTED_EDGE ( 'NONE', *, *, #13, .F. ) ;
#172 = PERSON_AND_ORGANIZATION ( #124, #221 ) ;
#173 = COORDINATED_UNIVERSAL_TIME_OFFSET ( 1, 0, .AHEAD. ) ;
#174 = APPLICATION_PROTOCOL_DEFINITION ( 'international standard', 'config_control_design', 1994, #235 ) ;
#175 = CC_DESIGN_PERSON_AND_ORGANIZATION_ASSIGNMENT ( #225, #137, ( #27 ) ) ;
#176 = CARTESIAN_POINT ( 'NONE',  ( 9.352410833320806772E-31, -3.280384134927761916E-32, 2.678636923896500974E-16 ) ) ;
#177 = AXIS2_PLACEMENT_3D ( 'NONE', #216, #236, #50 ) ;
#178 = AXIS2_PLACEMENT_3D ( 'NONE', #56, #109, #180 ) ;
#179 = AXIS2_PLACEMENT_3D ( 'NONE', #213, #214, #95 ) ;
#180 = DIRECTION ( 'NONE',  ( 0.0000000000000000000, 1.000000000000000000, 0.0000000000000000000 ) ) ;
#181 = VERTEX_POINT ( 'NONE', #9 ) ;
#182 = CIRCLE ( 'NONE', #179, 1.604000000000001869 ) ;
#183 = FACE_OUTER_BOUND ( 'NONE', #14, .T. ) ;
#184 = MECHANICAL_CONTEXT ( 'NONE', #229, 'mechanical' ) ;
#185 = CARTESIAN_POINT ( 'NONE',  ( 0.0000000000000000000, 0.0000000000000000000, 0.0000000000000000000 ) ) ;
#186 = ADVANCED_BREP_SHAPE_REPRESENTATION ( '969406', ( #227, #66, #4 ), #85 ) ;
#187 = FACE_OUTER_BOUND ( 'NONE', #205, .T. ) ;
#188 = APPROVAL ( #102, 'UNSPECIFIED' ) ;
#189 = DATE_TIME_ROLE ( 'classification_date' ) ;
#190 = ADVANCED_FACE ( 'NONE', ( #59, #218 ), #94, .T. ) ;
#191 = EDGE_LOOP ( 'NONE', ( #105 ) ) ;
#192 = COORDINATED_UNIVERSAL_TIME_OFFSET ( 1, 0, .AHEAD. ) ;
#193 = DATE_AND_TIME ( #19, #69 ) ;
#194 = ADVANCED_FACE ( 'NONE', ( #8 ), #88, .F. ) ;
#195 = CALENDAR_DATE ( 2021, 30, 11 ) ;
#196 = CLOSED_SHELL ( 'NONE', ( #194, #231, #147, #23, #167 ) ) ;
#197 = CARTESIAN_POINT ( 'NONE',  ( 7.197041454454715784E-14, -2.524382325196431677E-15, 20.61314598587939884 ) ) ;
#198 = ADVANCED_FACE ( 'NONE', ( #31 ), #133, .T. ) ;
#199 = CC_DESIGN_DATE_AND_TIME_ASSIGNMENT ( #193, #189, ( #41 ) ) ;
#200 = AXIS2_PLACEMENT_3D ( 'NONE', #11, #5, #114 ) ;
#201 = CARTESIAN_POINT ( 'NONE',  ( 6.982962677686265448E-14, 4.369127839091014996E-31, 19.99999999999999645 ) ) ;
#202 = PERSON_AND_ORGANIZATION_ROLE ( 'creator' ) ;
#203 = PERSON_AND_ORGANIZATION ( #124, #221 ) ;
#204 = PERSON_AND_ORGANIZATION ( #124, #221 ) ;
#205 = EDGE_LOOP ( 'NONE', ( #21 ) ) ;
#206 = EDGE_LOOP ( 'NONE', ( #169 ) ) ;
#207 = DIRECTION ( 'NONE',  ( 4.802817816427028285E-31, 1.000000000000000000, 1.351873033024321490E-16 ) ) ;
#208 = CIRCLE ( 'NONE', #178, 1.000000000000005551 ) ;
#209 = PRODUCT_DEFINITION_FORMATION_WITH_SPECIFIED_SOURCE ( 'ANY', '', #27, .NOT_KNOWN. ) ;
#210 = CIRCLE ( 'NONE', #84, 1.250000000000005329 ) ;
#211 = FACE_OUTER_BOUND ( 'NONE', #206, .T. ) ;
#212 = AXIS2_PLACEMENT_3D ( 'NONE', #176, #28, #81 ) ;
#213 = CARTESIAN_POINT ( 'NONE',  ( 6.982962677686265448E-14, -2.449293598294706119E-15, 19.99999999999999645 ) ) ;
#214 = DIRECTION ( 'NONE',  ( -3.491481338843133355E-15, 1.224646799147353207E-16, -1.000000000000000000 ) ) ;
#215 = CC_DESIGN_APPROVAL ( #83, ( #134 ) ) ;
#216 = CARTESIAN_POINT ( 'NONE',  ( 6.982962677686265448E-14, 4.369127839091014996E-31, 19.99999999999999645 ) ) ;
#217 =( NAMED_UNIT ( * ) SI_UNIT ( $, .STERADIAN. ) SOLID_ANGLE_UNIT ( ) );
#218 = FACE_OUTER_BOUND ( 'NONE', #191, .T. ) ;
#219 = APPROVAL_ROLE ( '' ) ;
#220 = CIRCLE ( 'NONE', #212, 1.354000000000000536 ) ;
#221 = ORGANIZATION ( 'UNSPECIFIED', 'UNSPECIFIED', '' ) ;
#222 = ORIENTED_EDGE ( 'NONE', *, *, #97, .F. ) ;
#223 = APPROVAL_STATUS ( 'not_yet_approved' ) ;
#224 = ADVANCED_FACE ( 'NONE', ( #110 ), #51, .F. ) ;
#225 = PERSON_AND_ORGANIZATION ( #124, #221 ) ;
#226 = APPROVAL_DATE_TIME ( #74, #46 ) ;
#227 = MANIFOLD_SOLID_BREP ( 'Corps-Déplacer/Copier1[1]', #196 ) ;
#228 = CARTESIAN_POINT ( 'NONE',  ( 1.955229549752154679E-13, -6.858022075225178552E-15, 56.00000000000000000 ) ) ;
#229 = APPLICATION_CONTEXT ( 'configuration controlled 3d designs of mechanical parts and assemblies' ) ;
#230 = VERTEX_POINT ( 'NONE', #70 ) ;
#231 = ADVANCED_FACE ( 'NONE', ( #187, #163 ), #22, .T. ) ;
#232 = LOCAL_TIME ( 14, 8, 19.00000000000000000, #173 ) ;
#233 =( LENGTH_UNIT ( ) NAMED_UNIT ( * ) SI_UNIT ( .MILLI., .METRE. ) );
#234 = APPROVAL_PERSON_ORGANIZATION ( #203, #46, #53 ) ;
#235 = APPLICATION_CONTEXT ( 'configuration controlled 3d designs of mechanical parts and assemblies' ) ;
#236 = DIRECTION ( 'NONE',  ( 3.491481338843133355E-15, -1.224646799147353207E-16, 1.000000000000000000 ) ) ;
#237 = CARTESIAN_POINT ( 'NONE',  ( 1.514188661106529085E-30, 1.354000000000000536, 4.336808689942017736E-16 ) ) ;
#238 = CIRCLE ( 'NONE', #144, 1.249999999999996003 ) ;
#239 = EDGE_LOOP ( 'NONE', ( #3 ) ) ;
#240 = APPROVAL_DATE_TIME ( #20, #188 ) ;
#241 = DESIGN_CONTEXT ( 'detailed design', #235, 'design' ) ;
#242 = CC_DESIGN_PERSON_AND_ORGANIZATION_ASSIGNMENT ( #75, #202, ( #134 ) ) ;
#243 = CALENDAR_DATE ( 2021, 30, 11 ) ;
ENDSEC;
END-ISO-10303-21;
