ISO-10303-21;
HEADER;
FILE_DESCRIPTION (( 'STEP AP203' ),
    '1' );
FILE_NAME ('969405.step',
    '2021-11-30T13:08:18',
    ( '' ),
    ( '' ),
    'SwSTEP 2.0',
    'SolidWorks 2019',
    '' );
FILE_SCHEMA (( 'CONFIG_CONTROL_DESIGN' ));
ENDSEC;

DATA;
#1 = DATE_AND_TIME ( #222, #25 ) ;
#2 = PERSON_AND_ORGANIZATION_ROLE ( 'creator' ) ;
#3 =( NAMED_UNIT ( * ) SI_UNIT ( $, .STERADIAN. ) SOLID_ANGLE_UNIT ( ) );
#4 = ORIENTED_EDGE ( 'NONE', *, *, #34, .F. ) ;
#5 = DIRECTION ( 'NONE',  ( 0.0000000000000000000, 1.000000000000000000, 0.0000000000000000000 ) ) ;
#6 = ORIENTED_EDGE ( 'NONE', *, *, #14, .F. ) ;
#7 =( GEOMETRIC_REPRESENTATION_CONTEXT ( 3 ) GLOBAL_UNCERTAINTY_ASSIGNED_CONTEXT ( ( #202 ) ) GLOBAL_UNIT_ASSIGNED_CONTEXT ( ( #171, #89, #3 ) ) REPRESENTATION_CONTEXT ( 'NONE', 'WORKASPACE' ) );
#8 = CIRCLE ( 'NONE', #135, 1.593999999999997863 ) ;
#9 = EDGE_LOOP ( 'NONE', ( #60 ) ) ;
#10 = DIRECTION ( 'NONE',  ( -3.491481338843133355E-15, 1.224646799147353207E-16, -1.000000000000000000 ) ) ;
#11 = PRODUCT_DEFINITION ( 'UNKNOWN', '', #122, #45 ) ;
#12 = APPROVAL ( #162, 'UNSPECIFIED' ) ;
#13 = ADVANCED_FACE ( 'NONE', ( #217 ), #43, .F. ) ;
#14 = EDGE_CURVE ( 'NONE', #77, #77, #8, .T. ) ;
#15 = LOCAL_TIME ( 14, 8, 18.00000000000000000, #139 ) ;
#16 = FACE_OUTER_BOUND ( 'NONE', #128, .T. ) ;
#17 = DIRECTION ( 'NONE',  ( 4.275831445896959482E-31, 1.000000000000000000, 1.224646799147353207E-16 ) ) ;
#18 = APPLICATION_PROTOCOL_DEFINITION ( 'international standard', 'config_control_design', 1994, #69 ) ;
#19 = DIRECTION ( 'NONE',  ( -3.491481338843133355E-15, 1.224646799147353207E-16, -1.000000000000000000 ) ) ;
#20 = CIRCLE ( 'NONE', #160, 1.000000000000005551 ) ;
#21 = APPROVAL_DATE_TIME ( #37, #114 ) ;
#22 = ORIENTED_EDGE ( 'NONE', *, *, #183, .F. ) ;
#23 = DIRECTION ( 'NONE',  ( -4.275831445896958607E-31, -1.000000000000000000, -1.224646799147353207E-16 ) ) ;
#24 = CARTESIAN_POINT ( 'NONE',  ( 1.955229549752154679E-13, 0.9999999999999985567, 56.00000000000000000 ) ) ;
#25 = LOCAL_TIME ( 14, 8, 18.00000000000000000, #133 ) ;
#26 = AXIS2_PLACEMENT_3D ( 'NONE', #88, #164, #221 ) ;
#27 = CONICAL_SURFACE ( 'NONE', #98, 1.249999999999996003, 0.5235987755982922653 ) ;
#28 = FACE_BOUND ( 'NONE', #118, .T. ) ;
#29 = PLANE ( 'NONE',  #206 ) ;
#30 = CARTESIAN_POINT ( 'NONE',  ( 6.982962677686265448E-14, 4.368377959199684007E-31, 19.99999999999999645 ) ) ;
#31 = CC_DESIGN_PERSON_AND_ORGANIZATION_ASSIGNMENT ( #198, #184, ( #11 ) ) ;
#32 = EDGE_LOOP ( 'NONE', ( #186 ) ) ;
#33 = LOCAL_TIME ( 14, 8, 18.00000000000000000, #102 ) ;
#34 = EDGE_CURVE ( 'NONE', #213, #213, #201, .T. ) ;
#35 = PERSON_AND_ORGANIZATION_ROLE ( 'design_owner' ) ;
#36 = DIRECTION ( 'NONE',  ( -3.491481338843133355E-15, 1.224646799147353207E-16, -1.000000000000000000 ) ) ;
#37 = DATE_AND_TIME ( #210, #87 ) ;
#38 = SHAPE_DEFINITION_REPRESENTATION ( #238, #47 ) ;
#39 = DIRECTION ( 'NONE',  ( 0.0000000000000000000, 1.000000000000000000, 0.0000000000000000000 ) ) ;
#40 = CLOSED_SHELL ( 'NONE', ( #13, #97, #180, #190 ) ) ;
#41 = VERTEX_POINT ( 'NONE', #195 ) ;
#42 = DIRECTION ( 'NONE',  ( -3.491481338843133355E-15, 1.224646799147353207E-16, -1.000000000000000000 ) ) ;
#43 = PLANE ( 'NONE',  #130 ) ;
#44 = EDGE_CURVE ( 'NONE', #109, #109, #63, .T. ) ;
#45 = DESIGN_CONTEXT ( 'detailed design', #69, 'design' ) ;
#46 = CYLINDRICAL_SURFACE ( 'NONE', #26, 1.593999999999998973 ) ;
#47 = ADVANCED_BREP_SHAPE_REPRESENTATION ( '969405', ( #219, #136, #94 ), #7 ) ;
#48 = ORIENTED_EDGE ( 'NONE', *, *, #183, .T. ) ;
#49 = COORDINATED_UNIVERSAL_TIME_OFFSET ( 1, 0, .AHEAD. ) ;
#50 = EDGE_LOOP ( 'NONE', ( #48 ) ) ;
#51 = CARTESIAN_POINT ( 'NONE',  ( 5.609697495013453049E-31, -1.967617012591401010E-32, 1.606681219402469799E-16 ) ) ;
#52 = CARTESIAN_POINT ( 'NONE',  ( 1.955229549752154679E-13, 7.498798913309223722E-33, 56.00000000000000000 ) ) ;
#53 = PERSON_AND_ORGANIZATION ( #175, #179 ) ;
#54 = CC_DESIGN_SECURITY_CLASSIFICATION ( #214, ( #122 ) ) ;
#55 = MECHANICAL_CONTEXT ( 'NONE', #82, 'mechanical' ) ;
#56 = FACE_OUTER_BOUND ( 'NONE', #9, .T. ) ;
#57 = PERSON_AND_ORGANIZATION ( #175, #179 ) ;
#58 = CARTESIAN_POINT ( 'NONE',  ( 8.728703347107827472E-16, -3.061616997868381169E-17, 0.2499999999999998335 ) ) ;
#59 = CARTESIAN_POINT ( 'NONE',  ( 6.982962677686265448E-14, 1.593999999999998085, 19.99999999999999645 ) ) ;
#60 = ORIENTED_EDGE ( 'NONE', *, *, #92, .F. ) ;
#61 = DIRECTION ( 'NONE',  ( -3.491481338843133355E-15, 1.224646799147353207E-16, -1.000000000000000000 ) ) ;
#62 = AXIS2_PLACEMENT_3D ( 'NONE', #51, #119, #17 ) ;
#63 = CIRCLE ( 'NONE', #237, 1.249999999999996003 ) ;
#64 = EDGE_LOOP ( 'NONE', ( #229 ) ) ;
#65 = APPROVAL_DATE_TIME ( #189, #12 ) ;
#66 = ORIENTED_EDGE ( 'NONE', *, *, #76, .T. ) ;
#67 = PLANE ( 'NONE',  #112 ) ;
#68 = CARTESIAN_POINT ( 'NONE',  ( 6.982962677686265448E-14, -2.449293598294706119E-15, 19.99999999999999645 ) ) ;
#69 = APPLICATION_CONTEXT ( 'configuration controlled 3d designs of mechanical parts and assemblies' ) ;
#70 = LOCAL_TIME ( 14, 8, 18.00000000000000000, #49 ) ;
#71 = DATE_TIME_ROLE ( 'classification_date' ) ;
#72 = PERSON_AND_ORGANIZATION ( #175, #179 ) ;
#73 = DIRECTION ( 'NONE',  ( 3.491481338843133355E-15, -1.224646799147353207E-16, 1.000000000000000000 ) ) ;
#74 = DIRECTION ( 'NONE',  ( 4.275831445896957731E-31, 1.000000000000000000, 1.224646799147353454E-16 ) ) ;
#75 = ORIENTED_EDGE ( 'NONE', *, *, #92, .T. ) ;
#76 = EDGE_CURVE ( 'NONE', #110, #110, #20, .T. ) ;
#77 = VERTEX_POINT ( 'NONE', #147 ) ;
#78 = CARTESIAN_POINT ( 'NONE',  ( 2.804848747506726525E-31, -9.838085062957005051E-33, 8.033406097012348994E-17 ) ) ;
#79 = CC_DESIGN_APPROVAL ( #12, ( #214 ) ) ;
#80 = EDGE_LOOP ( 'NONE', ( #22 ) ) ;
#81 = PLANE ( 'NONE',  #173 ) ;
#82 = APPLICATION_CONTEXT ( 'configuration controlled 3d designs of mechanical parts and assemblies' ) ;
#83 = CC_DESIGN_DATE_AND_TIME_ASSIGNMENT ( #86, #159, ( #11 ) ) ;
#84 = APPROVAL_PERSON_ORGANIZATION ( #243, #235, #207 ) ;
#85 = CC_DESIGN_DATE_AND_TIME_ASSIGNMENT ( #1, #71, ( #214 ) ) ;
#86 = DATE_AND_TIME ( #174, #70 ) ;
#87 = LOCAL_TIME ( 14, 8, 18.00000000000000000, #125 ) ;
#88 = CARTESIAN_POINT ( 'NONE',  ( 0.0000000000000000000, 0.0000000000000000000, 0.0000000000000000000 ) ) ;
#89 =( NAMED_UNIT ( * ) PLANE_ANGLE_UNIT ( ) SI_UNIT ( $, .RADIAN. ) );
#90 = FACE_BOUND ( 'NONE', #64, .T. ) ;
#91 = DIRECTION ( 'NONE',  ( -3.491481338843133355E-15, 1.224646799147353207E-16, -1.000000000000000000 ) ) ;
#92 = EDGE_CURVE ( 'NONE', #127, #127, #224, .T. ) ;
#93 = FACE_OUTER_BOUND ( 'NONE', #80, .T. ) ;
#94 = AXIS2_PLACEMENT_3D ( 'NONE', #95, #140, #192 ) ;
#95 = CARTESIAN_POINT ( 'NONE',  ( 0.0000000000000000000, 0.0000000000000000000, 0.0000000000000000000 ) ) ;
#96 = CARTESIAN_POINT ( 'NONE',  ( 1.955229549752154679E-13, -6.858022075225178552E-15, 56.00000000000000000 ) ) ;
#97 = ADVANCED_FACE ( 'NONE', ( #90, #191 ), #149, .T. ) ;
#98 = AXIS2_PLACEMENT_3D ( 'NONE', #145, #42, #5 ) ;
#99 = PRODUCT ( '969405', '969405', '', ( #55 ) ) ;
#100 = CLOSED_SHELL ( 'NONE', ( #153, #241, #220, #124, #158 ) ) ;
#101 = DIRECTION ( 'NONE',  ( 3.491481338843133355E-15, -1.224646799147353207E-16, 1.000000000000000000 ) ) ;
#102 = COORDINATED_UNIVERSAL_TIME_OFFSET ( 1, 0, .AHEAD. ) ;
#103 = AXIS2_PLACEMENT_3D ( 'NONE', #148, #233, #212 ) ;
#104 = CIRCLE ( 'NONE', #62, 1.344000000000000528 ) ;
#105 = APPROVAL_DATE_TIME ( #142, #235 ) ;
#106 = CARTESIAN_POINT ( 'NONE',  ( 0.0000000000000000000, 0.0000000000000000000, 0.0000000000000000000 ) ) ;
#107 = DIRECTION ( 'NONE',  ( 0.0000000000000000000, 1.000000000000000000, 0.0000000000000000000 ) ) ;
#108 = PERSON_AND_ORGANIZATION ( #175, #179 ) ;
#109 = VERTEX_POINT ( 'NONE', #215 ) ;
#110 = VERTEX_POINT ( 'NONE', #24 ) ;
#111 = CARTESIAN_POINT ( 'NONE',  ( 1.946500846405046877E-13, 1.249999999999998446, 55.75000000000000000 ) ) ;
#112 = AXIS2_PLACEMENT_3D ( 'NONE', #52, #138, #188 ) ;
#113 = CC_DESIGN_PERSON_AND_ORGANIZATION_ASSIGNMENT ( #57, #230, ( #122 ) ) ;
#114 = APPROVAL ( #143, 'UNSPECIFIED' ) ;
#115 = CC_DESIGN_APPROVAL ( #114, ( #11 ) ) ;
#116 = PRODUCT_RELATED_PRODUCT_CATEGORY ( 'detail', '', ( #99 ) ) ;
#117 = FACE_OUTER_BOUND ( 'NONE', #172, .T. ) ;
#118 = EDGE_LOOP ( 'NONE', ( #66 ) ) ;
#119 = DIRECTION ( 'NONE',  ( -3.491481338843133355E-15, 1.224646799147353207E-16, -1.000000000000000000 ) ) ;
#120 = CC_DESIGN_PERSON_AND_ORGANIZATION_ASSIGNMENT ( #208, #35, ( #99 ) ) ;
#121 = PERSON_AND_ORGANIZATION ( #175, #179 ) ;
#122 = PRODUCT_DEFINITION_FORMATION_WITH_SPECIFIED_SOURCE ( 'ANY', '', #99, .NOT_KNOWN. ) ;
#123 = ORIENTED_EDGE ( 'NONE', *, *, #76, .F. ) ;
#124 = ADVANCED_FACE ( 'NONE', ( #56, #28 ), #239, .T. ) ;
#125 = COORDINATED_UNIVERSAL_TIME_OFFSET ( 1, 0, .AHEAD. ) ;
#126 = CYLINDRICAL_SURFACE ( 'NONE', #156, 1.250000000000000666 ) ;
#127 = VERTEX_POINT ( 'NONE', #111 ) ;
#128 = EDGE_LOOP ( 'NONE', ( #134 ) ) ;
#129 = ORIENTED_EDGE ( 'NONE', *, *, #14, .T. ) ;
#130 = AXIS2_PLACEMENT_3D ( 'NONE', #78, #168, #23 ) ;
#131 = CARTESIAN_POINT ( 'NONE',  ( 6.982962677686265448E-14, 4.368377959199684007E-31, 19.99999999999999645 ) ) ;
#132 = AXIS2_PLACEMENT_3D ( 'NONE', #166, #73, #232 ) ;
#133 = COORDINATED_UNIVERSAL_TIME_OFFSET ( 1, 0, .AHEAD. ) ;
#134 = ORIENTED_EDGE ( 'NONE', *, *, #34, .T. ) ;
#135 = AXIS2_PLACEMENT_3D ( 'NONE', #58, #91, #146 ) ;
#136 = MANIFOLD_SOLID_BREP ( 'Corps-Déplacer/Copier1[2]', #40 ) ;
#137 = APPROVAL_STATUS ( 'not_yet_approved' ) ;
#138 = DIRECTION ( 'NONE',  ( -3.491481338843133355E-15, 1.224646799147353207E-16, -1.000000000000000000 ) ) ;
#139 = COORDINATED_UNIVERSAL_TIME_OFFSET ( 1, 0, .AHEAD. ) ;
#140 = DIRECTION ( 'NONE',  ( 0.0000000000000000000, 0.0000000000000000000, 1.000000000000000000 ) ) ;
#141 = APPROVAL_ROLE ( '' ) ;
#142 = DATE_AND_TIME ( #205, #15 ) ;
#143 = APPROVAL_STATUS ( 'not_yet_approved' ) ;
#144 = CARTESIAN_POINT ( 'NONE',  ( 7.190994031382160775E-14, -2.522261174718981588E-15, 20.59582547780370732 ) ) ;
#145 = CARTESIAN_POINT ( 'NONE',  ( 7.190994031382160775E-14, -2.522261174718981588E-15, 20.59582547780370732 ) ) ;
#146 = DIRECTION ( 'NONE',  ( 4.832948417533848294E-31, 1.000000000000000000, 1.360354043269141718E-16 ) ) ;
#147 = CARTESIAN_POINT ( 'NONE',  ( 8.728703347107835360E-16, 1.593999999999997863, 0.2500000000000000555 ) ) ;
#148 = CARTESIAN_POINT ( 'NONE',  ( 6.982962677686265448E-14, -2.449293598294706119E-15, 19.99999999999999645 ) ) ;
#149 = CONICAL_SURFACE ( 'NONE', #132, 1.593999999999997863, 0.7853981633974432830 ) ;
#150 = EDGE_LOOP ( 'NONE', ( #123 ) ) ;
#151 = EDGE_LOOP ( 'NONE', ( #75 ) ) ;
#152 = FACE_OUTER_BOUND ( 'NONE', #50, .T. ) ;
#153 = ADVANCED_FACE ( 'NONE', ( #152 ), #81, .F. ) ;
#154 = FACE_OUTER_BOUND ( 'NONE', #150, .T. ) ;
#155 = APPROVAL_PERSON_ORGANIZATION ( #121, #12, #141 ) ;
#156 = AXIS2_PLACEMENT_3D ( 'NONE', #106, #169, #74 ) ;
#157 = FACE_OUTER_BOUND ( 'NONE', #242, .T. ) ;
#158 = ADVANCED_FACE ( 'NONE', ( #154 ), #67, .F. ) ;
#159 = DATE_TIME_ROLE ( 'creation_date' ) ;
#160 = AXIS2_PLACEMENT_3D ( 'NONE', #236, #61, #39 ) ;
#161 = CIRCLE ( 'NONE', #240, 1.594000000000000528 ) ;
#162 = APPROVAL_STATUS ( 'not_yet_approved' ) ;
#163 = CC_DESIGN_PERSON_AND_ORGANIZATION_ASSIGNMENT ( #53, #2, ( #122 ) ) ;
#164 = DIRECTION ( 'NONE',  ( -3.491481338843133355E-15, 1.224646799147353207E-16, -1.000000000000000000 ) ) ;
#165 = DIRECTION ( 'NONE',  ( 0.0000000000000000000, 1.000000000000000000, 0.0000000000000000000 ) ) ;
#166 = CARTESIAN_POINT ( 'NONE',  ( 8.728703347107827472E-16, -3.061616997868381169E-17, 0.2499999999999998335 ) ) ;
#167 = VERTEX_POINT ( 'NONE', #228 ) ;
#168 = DIRECTION ( 'NONE',  ( 3.491481338843133355E-15, -1.224646799147353207E-16, 1.000000000000000000 ) ) ;
#169 = DIRECTION ( 'NONE',  ( -3.491481338843133355E-15, 1.224646799147353207E-16, -1.000000000000000000 ) ) ;
#170 = AXIS2_PLACEMENT_3D ( 'NONE', #96, #10, #177 ) ;
#171 =( LENGTH_UNIT ( ) NAMED_UNIT ( * ) SI_UNIT ( .MILLI., .METRE. ) );
#172 = EDGE_LOOP ( 'NONE', ( #4 ) ) ;
#173 = AXIS2_PLACEMENT_3D ( 'NONE', #131, #218, #178 ) ;
#174 = CALENDAR_DATE ( 2021, 30, 11 ) ;
#175 = PERSON ( 'UNSPECIFIED', 'UNSPECIFIED', 'UNSPECIFIED', ('UNSPECIFIED'), ('UNSPECIFIED'), ('UNSPECIFIED') ) ;
#176 = EDGE_CURVE ( 'NONE', #167, #167, #104, .T. ) ;
#177 = DIRECTION ( 'NONE',  ( 0.0000000000000000000, 1.000000000000000000, 0.0000000000000000000 ) ) ;
#178 = DIRECTION ( 'NONE',  ( -4.275831445896958607E-31, -1.000000000000000000, -1.224646799147353207E-16 ) ) ;
#179 = ORGANIZATION ( 'UNSPECIFIED', 'UNSPECIFIED', '' ) ;
#180 = ADVANCED_FACE ( 'NONE', ( #200, #16 ), #46, .T. ) ;
#181 = PERSON_AND_ORGANIZATION_ROLE ( 'classification_officer' ) ;
#182 = CC_DESIGN_PERSON_AND_ORGANIZATION_ASSIGNMENT ( #108, #181, ( #214 ) ) ;
#183 = EDGE_CURVE ( 'NONE', #41, #41, #161, .T. ) ;
#184 = PERSON_AND_ORGANIZATION_ROLE ( 'creator' ) ;
#185 = DIRECTION ( 'NONE',  ( -4.275831445896958607E-31, -1.000000000000000000, -1.224646799147353207E-16 ) ) ;
#186 = ORIENTED_EDGE ( 'NONE', *, *, #44, .T. ) ;
#187 = APPROVAL_PERSON_ORGANIZATION ( #72, #114, #231 ) ;
#188 = DIRECTION ( 'NONE',  ( 4.275831445896958607E-31, 1.000000000000000000, 1.224646799147353207E-16 ) ) ;
#189 = DATE_AND_TIME ( #211, #33 ) ;
#190 = ADVANCED_FACE ( 'NONE', ( #117 ), #29, .T. ) ;
#191 = FACE_OUTER_BOUND ( 'NONE', #194, .T. ) ;
#192 = DIRECTION ( 'NONE',  ( 1.000000000000000000, 0.0000000000000000000, 0.0000000000000000000 ) ) ;
#193 = SECURITY_CLASSIFICATION_LEVEL ( 'unclassified' ) ;
#194 = EDGE_LOOP ( 'NONE', ( #129 ) ) ;
#195 = CARTESIAN_POINT ( 'NONE',  ( 6.982962677686265448E-14, 1.593999999999998085, 19.99999999999999645 ) ) ;
#196 = FACE_BOUND ( 'NONE', #32, .T. ) ;
#197 = DIRECTION ( 'NONE',  ( 0.0000000000000000000, 1.000000000000000000, 0.0000000000000000000 ) ) ;
#198 = PERSON_AND_ORGANIZATION ( #175, #179 ) ;
#199 = AXIS2_PLACEMENT_3D ( 'NONE', #209, #36, #107 ) ;
#200 = FACE_OUTER_BOUND ( 'NONE', #204, .T. ) ;
#201 = CIRCLE ( 'NONE', #103, 1.594000000000000528 ) ;
#202 = UNCERTAINTY_MEASURE_WITH_UNIT (LENGTH_MEASURE( 1.000000000000000082E-05 ), #171, 'distance_accuracy_value', 'NONE');
#203 = EDGE_LOOP ( 'NONE', ( #223 ) ) ;
#204 = EDGE_LOOP ( 'NONE', ( #6 ) ) ;
#205 = CALENDAR_DATE ( 2021, 30, 11 ) ;
#206 = AXIS2_PLACEMENT_3D ( 'NONE', #30, #101, #185 ) ;
#207 = APPROVAL_ROLE ( '' ) ;
#208 = PERSON_AND_ORGANIZATION ( #175, #179 ) ;
#209 = CARTESIAN_POINT ( 'NONE',  ( 1.946500846405046877E-13, -6.827405905246494765E-15, 55.75000000000000000 ) ) ;
#210 = CALENDAR_DATE ( 2021, 30, 11 ) ;
#211 = CALENDAR_DATE ( 2021, 30, 11 ) ;
#212 = DIRECTION ( 'NONE',  ( 0.0000000000000000000, 1.000000000000000000, 0.0000000000000000000 ) ) ;
#213 = VERTEX_POINT ( 'NONE', #59 ) ;
#214 = SECURITY_CLASSIFICATION ( '', '', #193 ) ;
#215 = CARTESIAN_POINT ( 'NONE',  ( 7.190994031382160775E-14, 1.249999999999993339, 20.59582547780370732 ) ) ;
#216 = APPLICATION_PROTOCOL_DEFINITION ( 'international standard', 'config_control_design', 1994, #82 ) ;
#217 = FACE_OUTER_BOUND ( 'NONE', #203, .T. ) ;
#218 = DIRECTION ( 'NONE',  ( 3.491481338843133355E-15, -1.224646799147353207E-16, 1.000000000000000000 ) ) ;
#219 = MANIFOLD_SOLID_BREP ( 'Corps-Déplacer/Copier1[1]', #100 ) ;
#220 = ADVANCED_FACE ( 'NONE', ( #157, #234 ), #126, .T. ) ;
#221 = DIRECTION ( 'NONE',  ( 4.275831445896958607E-31, 1.000000000000000000, 1.224646799147353207E-16 ) ) ;
#222 = CALENDAR_DATE ( 2021, 30, 11 ) ;
#223 = ORIENTED_EDGE ( 'NONE', *, *, #176, .T. ) ;
#224 = CIRCLE ( 'NONE', #199, 1.250000000000005329 ) ;
#225 = ORIENTED_EDGE ( 'NONE', *, *, #44, .F. ) ;
#226 = DIRECTION ( 'NONE',  ( -3.491481338843133355E-15, 1.224646799147353207E-16, -1.000000000000000000 ) ) ;
#227 = CC_DESIGN_APPROVAL ( #235, ( #122 ) ) ;
#228 = CARTESIAN_POINT ( 'NONE',  ( 1.135641495829896858E-30, 1.344000000000000528, 3.252606517456513302E-16 ) ) ;
#229 = ORIENTED_EDGE ( 'NONE', *, *, #176, .F. ) ;
#230 = PERSON_AND_ORGANIZATION_ROLE ( 'design_supplier' ) ;
#231 = APPROVAL_ROLE ( '' ) ;
#232 = DIRECTION ( 'NONE',  ( -4.832948417533848294E-31, -1.000000000000000000, -1.360354043269141718E-16 ) ) ;
#233 = DIRECTION ( 'NONE',  ( -3.491481338843133355E-15, 1.224646799147353207E-16, -1.000000000000000000 ) ) ;
#234 = FACE_OUTER_BOUND ( 'NONE', #151, .T. ) ;
#235 = APPROVAL ( #137, 'UNSPECIFIED' ) ;
#236 = CARTESIAN_POINT ( 'NONE',  ( 1.955229549752154679E-13, -6.858022075225178552E-15, 56.00000000000000000 ) ) ;
#237 = AXIS2_PLACEMENT_3D ( 'NONE', #144, #19, #197 ) ;
#238 = PRODUCT_DEFINITION_SHAPE ( 'NONE', 'NONE',  #11 ) ;
#239 = CONICAL_SURFACE ( 'NONE', #170, 1.000000000000005551, 0.7853981633974473908 ) ;
#240 = AXIS2_PLACEMENT_3D ( 'NONE', #68, #226, #165 ) ;
#241 = ADVANCED_FACE ( 'NONE', ( #93, #196 ), #27, .T. ) ;
#242 = EDGE_LOOP ( 'NONE', ( #225 ) ) ;
#243 = PERSON_AND_ORGANIZATION ( #175, #179 ) ;
ENDSEC;
END-ISO-10303-21;
