ISO-10303-21;
HEADER;
FILE_DESCRIPTION (( 'STEP AP203' ),
    '1' );
FILE_NAME ('969404.step',
    '2021-11-30T13:08:18',
    ( '' ),
    ( '' ),
    'SwSTEP 2.0',
    'SolidWorks 2019',
    '' );
FILE_SCHEMA (( 'CONFIG_CONTROL_DESIGN' ));
ENDSEC;

DATA;
#1 = PERSON_AND_ORGANIZATION ( #79, #130 ) ;
#2 = DIRECTION ( 'NONE',  ( 3.491481338843133355E-15, -1.224646799147353207E-16, 1.000000000000000000 ) ) ;
#3 = PERSON_AND_ORGANIZATION ( #79, #130 ) ;
#4 = DIRECTION ( 'NONE',  ( 0.0000000000000000000, 1.000000000000000000, 0.0000000000000000000 ) ) ;
#5 = AXIS2_PLACEMENT_3D ( 'NONE', #102, #107, #166 ) ;
#6 = ADVANCED_BREP_SHAPE_REPRESENTATION ( '969404', ( #141, #64, #58 ), #140 ) ;
#7 = DIRECTION ( 'NONE',  ( 3.491481338843133355E-15, -1.224646799147353207E-16, 1.000000000000000000 ) ) ;
#8 = EDGE_LOOP ( 'NONE', ( #33 ) ) ;
#9 = CARTESIAN_POINT ( 'NONE',  ( 1.955229549752154679E-13, 7.498798913309223722E-33, 56.00000000000000000 ) ) ;
#10 = LOCAL_TIME ( 14, 8, 18.00000000000000000, #136 ) ;
#11 = ADVANCED_FACE ( 'NONE', ( #85 ), #155, .F. ) ;
#12 = DIRECTION ( 'NONE',  ( -3.491481338843133355E-15, 1.224646799147353207E-16, -1.000000000000000000 ) ) ;
#13 = EDGE_CURVE ( 'NONE', #179, #179, #159, .T. ) ;
#14 = FACE_BOUND ( 'NONE', #178, .T. ) ;
#15 = CC_DESIGN_APPROVAL ( #183, ( #234 ) ) ;
#16 = CARTESIAN_POINT ( 'NONE',  ( 8.728703347107827472E-16, -3.061616997868381169E-17, 0.2499999999999998335 ) ) ;
#17 = COORDINATED_UNIVERSAL_TIME_OFFSET ( 1, 0, .AHEAD. ) ;
#18 = LOCAL_TIME ( 14, 8, 18.00000000000000000, #91 ) ;
#19 = ADVANCED_FACE ( 'NONE', ( #23, #138 ), #132, .T. ) ;
#20 = DATE_AND_TIME ( #54, #10 ) ;
#21 = APPLICATION_CONTEXT ( 'configuration controlled 3d designs of mechanical parts and assemblies' ) ;
#22 = DATE_AND_TIME ( #69, #78 ) ;
#23 = FACE_OUTER_BOUND ( 'NONE', #84, .T. ) ;
#24 = CARTESIAN_POINT ( 'NONE',  ( 1.955229549752154679E-13, -6.858022075225178552E-15, 56.00000000000000000 ) ) ;
#25 = CARTESIAN_POINT ( 'NONE',  ( 6.982962677686265448E-14, 1.578999999999998849, 19.99999999999999645 ) ) ;
#26 = AXIS2_PLACEMENT_3D ( 'NONE', #227, #61, #90 ) ;
#27 = VERTEX_POINT ( 'NONE', #92 ) ;
#28 = DIRECTION ( 'NONE',  ( -3.491481338843133355E-15, 1.224646799147353207E-16, -1.000000000000000000 ) ) ;
#29 = PRODUCT_DEFINITION_SHAPE ( 'NONE', 'NONE',  #118 ) ;
#30 = APPROVAL_DATE_TIME ( #55, #183 ) ;
#31 = PERSON_AND_ORGANIZATION ( #79, #130 ) ;
#32 = CC_DESIGN_PERSON_AND_ORGANIZATION_ASSIGNMENT ( #65, #158, ( #118 ) ) ;
#33 = ORIENTED_EDGE ( 'NONE', *, *, #154, .F. ) ;
#34 = PERSON_AND_ORGANIZATION_ROLE ( 'design_owner' ) ;
#35 = EDGE_CURVE ( 'NONE', #137, #137, #208, .T. ) ;
#36 = PRODUCT_RELATED_PRODUCT_CATEGORY ( 'detail', '', ( #200 ) ) ;
#37 = CLOSED_SHELL ( 'NONE', ( #11, #228, #218, #19, #169 ) ) ;
#38 = DIRECTION ( 'NONE',  ( -3.491481338843133355E-15, 1.224646799147353207E-16, -1.000000000000000000 ) ) ;
#39 = CC_DESIGN_APPROVAL ( #243, ( #44 ) ) ;
#40 = APPROVAL_DATE_TIME ( #185, #243 ) ;
#41 =( LENGTH_UNIT ( ) NAMED_UNIT ( * ) SI_UNIT ( .MILLI., .METRE. ) );
#42 = DIRECTION ( 'NONE',  ( -4.275831445896958607E-31, -1.000000000000000000, -1.224646799147353207E-16 ) ) ;
#43 = ADVANCED_FACE ( 'NONE', ( #146, #190 ), #109, .T. ) ;
#44 = SECURITY_CLASSIFICATION ( '', '', #103 ) ;
#45 = CARTESIAN_POINT ( 'NONE',  ( 1.955229549752154679E-13, -6.858022075225178552E-15, 56.00000000000000000 ) ) ;
#46 = ORIENTED_EDGE ( 'NONE', *, *, #174, .F. ) ;
#47 = DIRECTION ( 'NONE',  ( 4.275831445896958607E-31, 1.000000000000000000, 1.224646799147353207E-16 ) ) ;
#48 = FACE_OUTER_BOUND ( 'NONE', #214, .T. ) ;
#49 = PERSON_AND_ORGANIZATION ( #79, #130 ) ;
#50 = DIRECTION ( 'NONE',  ( 0.0000000000000000000, 0.0000000000000000000, 1.000000000000000000 ) ) ;
#51 = ORIENTED_EDGE ( 'NONE', *, *, #13, .T. ) ;
#52 = EDGE_LOOP ( 'NONE', ( #222 ) ) ;
#53 = APPROVAL_ROLE ( '' ) ;
#54 = CALENDAR_DATE ( 2021, 30, 11 ) ;
#55 = DATE_AND_TIME ( #86, #112 ) ;
#56 = DIRECTION ( 'NONE',  ( 3.491481338843133355E-15, -1.224646799147353207E-16, 1.000000000000000000 ) ) ;
#57 = DATE_TIME_ROLE ( 'classification_date' ) ;
#58 = AXIS2_PLACEMENT_3D ( 'NONE', #177, #50, #115 ) ;
#59 = PERSON_AND_ORGANIZATION_ROLE ( 'creator' ) ;
#60 = PERSON_AND_ORGANIZATION_ROLE ( 'classification_officer' ) ;
#61 = DIRECTION ( 'NONE',  ( -3.491481338843133355E-15, 1.224646799147353207E-16, -1.000000000000000000 ) ) ;
#62 = DIRECTION ( 'NONE',  ( 0.0000000000000000000, 1.000000000000000000, 0.0000000000000000000 ) ) ;
#63 = APPLICATION_CONTEXT ( 'configuration controlled 3d designs of mechanical parts and assemblies' ) ;
#64 = MANIFOLD_SOLID_BREP ( 'Corps-Déplacer/Copier1[2]', #212 ) ;
#65 = PERSON_AND_ORGANIZATION ( #79, #130 ) ;
#66 = APPROVAL_STATUS ( 'not_yet_approved' ) ;
#67 = CC_DESIGN_SECURITY_CLASSIFICATION ( #44, ( #234 ) ) ;
#68 = DIRECTION ( 'NONE',  ( 0.0000000000000000000, 1.000000000000000000, 0.0000000000000000000 ) ) ;
#69 = CALENDAR_DATE ( 2021, 30, 11 ) ;
#70 = FACE_OUTER_BOUND ( 'NONE', #52, .T. ) ;
#71 = APPROVAL ( #240, 'UNSPECIFIED' ) ;
#72 = DIRECTION ( 'NONE',  ( 0.0000000000000000000, 1.000000000000000000, 0.0000000000000000000 ) ) ;
#73 = FACE_OUTER_BOUND ( 'NONE', #238, .T. ) ;
#74 = CC_DESIGN_PERSON_AND_ORGANIZATION_ASSIGNMENT ( #3, #161, ( #234 ) ) ;
#75 = ORIENTED_EDGE ( 'NONE', *, *, #89, .T. ) ;
#76 = FACE_OUTER_BOUND ( 'NONE', #202, .T. ) ;
#77 = AXIS2_PLACEMENT_3D ( 'NONE', #189, #230, #62 ) ;
#78 = LOCAL_TIME ( 14, 8, 18.00000000000000000, #126 ) ;
#79 = PERSON ( 'UNSPECIFIED', 'UNSPECIFIED', 'UNSPECIFIED', ('UNSPECIFIED'), ('UNSPECIFIED'), ('UNSPECIFIED') ) ;
#80 = CYLINDRICAL_SURFACE ( 'NONE', #123, 1.250000000000000666 ) ;
#81 = CC_DESIGN_DATE_AND_TIME_ASSIGNMENT ( #20, #113, ( #118 ) ) ;
#82 = CARTESIAN_POINT ( 'NONE',  ( 7.181922896773327631E-14, -2.519079449002806850E-15, 20.56984471569017359 ) ) ;
#83 = AXIS2_PLACEMENT_3D ( 'NONE', #82, #149, #151 ) ;
#84 = EDGE_LOOP ( 'NONE', ( #114 ) ) ;
#85 = FACE_OUTER_BOUND ( 'NONE', #195, .T. ) ;
#86 = CALENDAR_DATE ( 2021, 30, 11 ) ;
#87 = PLANE ( 'NONE',  #209 ) ;
#88 = DIRECTION ( 'NONE',  ( 0.0000000000000000000, 1.000000000000000000, 0.0000000000000000000 ) ) ;
#89 = EDGE_CURVE ( 'NONE', #27, #27, #106, .T. ) ;
#90 = DIRECTION ( 'NONE',  ( 4.275831445896958607E-31, 1.000000000000000000, 1.224646799147353207E-16 ) ) ;
#91 = COORDINATED_UNIVERSAL_TIME_OFFSET ( 1, 0, .AHEAD. ) ;
#92 = CARTESIAN_POINT ( 'NONE',  ( 1.955229549752154679E-13, 0.9999999999999985567, 56.00000000000000000 ) ) ;
#93 = EDGE_CURVE ( 'NONE', #165, #165, #101, .T. ) ;
#94 = CIRCLE ( 'NONE', #239, 1.579000000000001291 ) ;
#95 = DIRECTION ( 'NONE',  ( -3.491481338843133355E-15, 1.224646799147353207E-16, -1.000000000000000000 ) ) ;
#96 = FACE_OUTER_BOUND ( 'NONE', #233, .T. ) ;
#97 = MECHANICAL_CONTEXT ( 'NONE', #21, 'mechanical' ) ;
#98 = ORIENTED_EDGE ( 'NONE', *, *, #174, .T. ) ;
#99 = APPROVAL_PERSON_ORGANIZATION ( #49, #71, #53 ) ;
#100 = VERTEX_POINT ( 'NONE', #187 ) ;
#101 = CIRCLE ( 'NONE', #181, 1.579000000000001291 ) ;
#102 = CARTESIAN_POINT ( 'NONE',  ( 9.459306619468232094E-31, -3.317878129494308630E-32, 2.709253093875184860E-16 ) ) ;
#103 = SECURITY_CLASSIFICATION_LEVEL ( 'unclassified' ) ;
#104 = SHAPE_DEFINITION_REPRESENTATION ( #29, #6 ) ;
#105 = CARTESIAN_POINT ( 'NONE',  ( 1.946500846405046877E-13, -6.827405905246494765E-15, 55.75000000000000000 ) ) ;
#106 = CIRCLE ( 'NONE', #220, 1.000000000000005551 ) ;
#107 = DIRECTION ( 'NONE',  ( -3.491481338843133355E-15, 1.224646799147353207E-16, -1.000000000000000000 ) ) ;
#108 = AXIS2_PLACEMENT_3D ( 'NONE', #16, #95, #198 ) ;
#109 = CYLINDRICAL_SURFACE ( 'NONE', #26, 1.578999999999999293 ) ;
#110 = DIRECTION ( 'NONE',  ( 0.0000000000000000000, 1.000000000000000000, 0.0000000000000000000 ) ) ;
#111 = CC_DESIGN_PERSON_AND_ORGANIZATION_ASSIGNMENT ( #157, #34, ( #200 ) ) ;
#112 = LOCAL_TIME ( 14, 8, 18.00000000000000000, #223 ) ;
#113 = DATE_TIME_ROLE ( 'creation_date' ) ;
#114 = ORIENTED_EDGE ( 'NONE', *, *, #35, .F. ) ;
#115 = DIRECTION ( 'NONE',  ( 1.000000000000000000, 0.0000000000000000000, 0.0000000000000000000 ) ) ;
#116 = ORIENTED_EDGE ( 'NONE', *, *, #154, .T. ) ;
#117 = CARTESIAN_POINT ( 'NONE',  ( 7.181922896773327631E-14, 1.249999999999993339, 20.56984471569017359 ) ) ;
#118 = PRODUCT_DEFINITION ( 'UNKNOWN', '', #234, #170 ) ;
#119 = ADVANCED_FACE ( 'NONE', ( #194 ), #87, .F. ) ;
#120 = PERSON_AND_ORGANIZATION ( #79, #130 ) ;
#121 = CARTESIAN_POINT ( 'NONE',  ( 1.514188661106529085E-30, 1.329000000000000403, 4.336808689942017736E-16 ) ) ;
#122 = CARTESIAN_POINT ( 'NONE',  ( 8.728703347107835360E-16, 1.578999999999997517, 0.2500000000000000555 ) ) ;
#123 = AXIS2_PLACEMENT_3D ( 'NONE', #129, #148, #171 ) ;
#124 = CALENDAR_DATE ( 2021, 30, 11 ) ;
#125 =( NAMED_UNIT ( * ) PLANE_ANGLE_UNIT ( ) SI_UNIT ( $, .RADIAN. ) );
#126 = COORDINATED_UNIVERSAL_TIME_OFFSET ( 1, 0, .AHEAD. ) ;
#127 = AXIS2_PLACEMENT_3D ( 'NONE', #24, #38, #68 ) ;
#128 = DIRECTION ( 'NONE',  ( -3.491481338843133355E-15, 1.224646799147353207E-16, -1.000000000000000000 ) ) ;
#129 = CARTESIAN_POINT ( 'NONE',  ( 0.0000000000000000000, 0.0000000000000000000, 0.0000000000000000000 ) ) ;
#130 = ORGANIZATION ( 'UNSPECIFIED', 'UNSPECIFIED', '' ) ;
#131 = CARTESIAN_POINT ( 'NONE',  ( 6.982962677686265448E-14, -2.449293598294706119E-15, 19.99999999999999645 ) ) ;
#132 = CONICAL_SURFACE ( 'NONE', #127, 1.000000000000005551, 0.7853981633974473908 ) ;
#133 = AXIS2_PLACEMENT_3D ( 'NONE', #9, #12, #47 ) ;
#134 = APPROVAL_PERSON_ORGANIZATION ( #31, #183, #199 ) ;
#135 = CARTESIAN_POINT ( 'NONE',  ( 6.982962677686265448E-14, 4.367253139362687085E-31, 19.99999999999999645 ) ) ;
#136 = COORDINATED_UNIVERSAL_TIME_OFFSET ( 1, 0, .AHEAD. ) ;
#137 = VERTEX_POINT ( 'NONE', #205 ) ;
#138 = FACE_BOUND ( 'NONE', #182, .T. ) ;
#139 = PLANE ( 'NONE',  #133 ) ;
#140 =( GEOMETRIC_REPRESENTATION_CONTEXT ( 3 ) GLOBAL_UNCERTAINTY_ASSIGNED_CONTEXT ( ( #216 ) ) GLOBAL_UNIT_ASSIGNED_CONTEXT ( ( #41, #125, #168 ) ) REPRESENTATION_CONTEXT ( 'NONE', 'WORKASPACE' ) );
#141 = MANIFOLD_SOLID_BREP ( 'Corps-Déplacer/Copier1[1]', #37 ) ;
#142 = CARTESIAN_POINT ( 'NONE',  ( 4.729653309734116047E-31, -1.658939064747154315E-32, 1.354626546937592430E-16 ) ) ;
#143 = CC_DESIGN_DATE_AND_TIME_ASSIGNMENT ( #22, #57, ( #44 ) ) ;
#144 = CARTESIAN_POINT ( 'NONE',  ( 8.728703347107827472E-16, -3.061616997868381169E-17, 0.2499999999999998335 ) ) ;
#145 = EDGE_LOOP ( 'NONE', ( #116 ) ) ;
#146 = FACE_OUTER_BOUND ( 'NONE', #152, .T. ) ;
#147 = ADVANCED_FACE ( 'NONE', ( #224, #73 ), #156, .T. ) ;
#148 = DIRECTION ( 'NONE',  ( -3.491481338843133355E-15, 1.224646799147353207E-16, -1.000000000000000000 ) ) ;
#149 = DIRECTION ( 'NONE',  ( -3.491481338843133355E-15, 1.224646799147353207E-16, -1.000000000000000000 ) ) ;
#150 = ORIENTED_EDGE ( 'NONE', *, *, #93, .F. ) ;
#151 = DIRECTION ( 'NONE',  ( 0.0000000000000000000, 1.000000000000000000, 0.0000000000000000000 ) ) ;
#152 = EDGE_LOOP ( 'NONE', ( #46 ) ) ;
#153 = APPROVAL_DATE_TIME ( #237, #71 ) ;
#154 = EDGE_CURVE ( 'NONE', #229, #229, #196, .T. ) ;
#155 = PLANE ( 'NONE',  #180 ) ;
#156 = CONICAL_SURFACE ( 'NONE', #225, 1.578999999999997517, 0.7853981633974435050 ) ;
#157 = PERSON_AND_ORGANIZATION ( #79, #130 ) ;
#158 = PERSON_AND_ORGANIZATION_ROLE ( 'creator' ) ;
#159 = CIRCLE ( 'NONE', #77, 1.249999999999996003 ) ;
#160 = PLANE ( 'NONE',  #213 ) ;
#161 = PERSON_AND_ORGANIZATION_ROLE ( 'design_supplier' ) ;
#162 = DIRECTION ( 'NONE',  ( -3.491481338843133355E-15, 1.224646799147353207E-16, -1.000000000000000000 ) ) ;
#163 = CARTESIAN_POINT ( 'NONE',  ( 6.982962677686265448E-14, -2.449293598294706119E-15, 19.99999999999999645 ) ) ;
#164 = EDGE_LOOP ( 'NONE', ( #231 ) ) ;
#165 = VERTEX_POINT ( 'NONE', #25 ) ;
#166 = DIRECTION ( 'NONE',  ( 4.275831445896957731E-31, 1.000000000000000000, 1.224646799147353207E-16 ) ) ;
#167 = ADVANCED_FACE ( 'NONE', ( #76 ), #160, .T. ) ;
#168 =( NAMED_UNIT ( * ) SI_UNIT ( $, .STERADIAN. ) SOLID_ANGLE_UNIT ( ) );
#169 = ADVANCED_FACE ( 'NONE', ( #70 ), #139, .F. ) ;
#170 = DESIGN_CONTEXT ( 'detailed design', #63, 'design' ) ;
#171 = DIRECTION ( 'NONE',  ( 4.275831445896957731E-31, 1.000000000000000000, 1.224646799147353454E-16 ) ) ;
#172 = EDGE_LOOP ( 'NONE', ( #197 ) ) ;
#173 = APPROVAL_PERSON_ORGANIZATION ( #120, #243, #210 ) ;
#174 = EDGE_CURVE ( 'NONE', #226, #226, #215, .T. ) ;
#175 = ORIENTED_EDGE ( 'NONE', *, *, #13, .F. ) ;
#176 = CALENDAR_DATE ( 2021, 30, 11 ) ;
#177 = CARTESIAN_POINT ( 'NONE',  ( 0.0000000000000000000, 0.0000000000000000000, 0.0000000000000000000 ) ) ;
#178 = EDGE_LOOP ( 'NONE', ( #51 ) ) ;
#179 = VERTEX_POINT ( 'NONE', #117 ) ;
#180 = AXIS2_PLACEMENT_3D ( 'NONE', #135, #242, #203 ) ;
#181 = AXIS2_PLACEMENT_3D ( 'NONE', #163, #28, #72 ) ;
#182 = EDGE_LOOP ( 'NONE', ( #75 ) ) ;
#183 = APPROVAL ( #66, 'UNSPECIFIED' ) ;
#184 = PERSON_AND_ORGANIZATION ( #79, #130 ) ;
#185 = DATE_AND_TIME ( #124, #18 ) ;
#186 = LOCAL_TIME ( 14, 8, 18.00000000000000000, #17 ) ;
#187 = CARTESIAN_POINT ( 'NONE',  ( 6.982962677686265448E-14, 1.578999999999998849, 19.99999999999999645 ) ) ;
#188 = DIRECTION ( 'NONE',  ( -4.275831445896958607E-31, -1.000000000000000000, -1.224646799147353207E-16 ) ) ;
#189 = CARTESIAN_POINT ( 'NONE',  ( 7.181922896773327631E-14, -2.519079449002806850E-15, 20.56984471569017359 ) ) ;
#190 = FACE_OUTER_BOUND ( 'NONE', #172, .T. ) ;
#191 = AXIS2_PLACEMENT_3D ( 'NONE', #105, #128, #88 ) ;
#192 = CONICAL_SURFACE ( 'NONE', #83, 1.249999999999996003, 0.5235987755982932645 ) ;
#193 = CC_DESIGN_PERSON_AND_ORGANIZATION_ASSIGNMENT ( #184, #59, ( #234 ) ) ;
#194 = FACE_OUTER_BOUND ( 'NONE', #145, .T. ) ;
#195 = EDGE_LOOP ( 'NONE', ( #221 ) ) ;
#196 = CIRCLE ( 'NONE', #5, 1.329000000000000403 ) ;
#197 = ORIENTED_EDGE ( 'NONE', *, *, #235, .T. ) ;
#198 = DIRECTION ( 'NONE',  ( 4.878859897117768047E-31, 1.000000000000000000, 1.373276975915777289E-16 ) ) ;
#199 = APPROVAL_ROLE ( '' ) ;
#200 = PRODUCT ( '969404', '969404', '', ( #97 ) ) ;
#201 = APPLICATION_PROTOCOL_DEFINITION ( 'international standard', 'config_control_design', 1994, #63 ) ;
#202 = EDGE_LOOP ( 'NONE', ( #241 ) ) ;
#203 = DIRECTION ( 'NONE',  ( -4.275831445896958607E-31, -1.000000000000000000, -1.224646799147353207E-16 ) ) ;
#204 = CC_DESIGN_APPROVAL ( #71, ( #118 ) ) ;
#205 = CARTESIAN_POINT ( 'NONE',  ( 1.946500846405046877E-13, 1.249999999999998446, 55.75000000000000000 ) ) ;
#206 = APPROVAL_STATUS ( 'not_yet_approved' ) ;
#207 = CARTESIAN_POINT ( 'NONE',  ( 6.982962677686265448E-14, 4.367253139362687085E-31, 19.99999999999999645 ) ) ;
#208 = CIRCLE ( 'NONE', #191, 1.250000000000005329 ) ;
#209 = AXIS2_PLACEMENT_3D ( 'NONE', #142, #7, #42 ) ;
#210 = APPROVAL_ROLE ( '' ) ;
#211 = DIRECTION ( 'NONE',  ( -4.878859897117768047E-31, -1.000000000000000000, -1.373276975915777289E-16 ) ) ;
#212 = CLOSED_SHELL ( 'NONE', ( #119, #147, #43, #167 ) ) ;
#213 = AXIS2_PLACEMENT_3D ( 'NONE', #207, #2, #188 ) ;
#214 = EDGE_LOOP ( 'NONE', ( #150 ) ) ;
#215 = CIRCLE ( 'NONE', #108, 1.578999999999997517 ) ;
#216 = UNCERTAINTY_MEASURE_WITH_UNIT (LENGTH_MEASURE( 1.000000000000000082E-05 ), #41, 'distance_accuracy_value', 'NONE');
#217 = DIRECTION ( 'NONE',  ( -3.491481338843133355E-15, 1.224646799147353207E-16, -1.000000000000000000 ) ) ;
#218 = ADVANCED_FACE ( 'NONE', ( #96, #232 ), #80, .T. ) ;
#219 = APPLICATION_PROTOCOL_DEFINITION ( 'international standard', 'config_control_design', 1994, #21 ) ;
#220 = AXIS2_PLACEMENT_3D ( 'NONE', #45, #162, #4 ) ;
#221 = ORIENTED_EDGE ( 'NONE', *, *, #93, .T. ) ;
#222 = ORIENTED_EDGE ( 'NONE', *, *, #89, .F. ) ;
#223 = COORDINATED_UNIVERSAL_TIME_OFFSET ( 1, 0, .AHEAD. ) ;
#224 = FACE_BOUND ( 'NONE', #8, .T. ) ;
#225 = AXIS2_PLACEMENT_3D ( 'NONE', #144, #56, #211 ) ;
#226 = VERTEX_POINT ( 'NONE', #122 ) ;
#227 = CARTESIAN_POINT ( 'NONE',  ( 0.0000000000000000000, 0.0000000000000000000, 0.0000000000000000000 ) ) ;
#228 = ADVANCED_FACE ( 'NONE', ( #48, #14 ), #192, .T. ) ;
#229 = VERTEX_POINT ( 'NONE', #121 ) ;
#230 = DIRECTION ( 'NONE',  ( -3.491481338843133355E-15, 1.224646799147353207E-16, -1.000000000000000000 ) ) ;
#231 = ORIENTED_EDGE ( 'NONE', *, *, #35, .T. ) ;
#232 = FACE_OUTER_BOUND ( 'NONE', #164, .T. ) ;
#233 = EDGE_LOOP ( 'NONE', ( #175 ) ) ;
#234 = PRODUCT_DEFINITION_FORMATION_WITH_SPECIFIED_SOURCE ( 'ANY', '', #200, .NOT_KNOWN. ) ;
#235 = EDGE_CURVE ( 'NONE', #100, #100, #94, .T. ) ;
#236 = CC_DESIGN_PERSON_AND_ORGANIZATION_ASSIGNMENT ( #1, #60, ( #44 ) ) ;
#237 = DATE_AND_TIME ( #176, #186 ) ;
#238 = EDGE_LOOP ( 'NONE', ( #98 ) ) ;
#239 = AXIS2_PLACEMENT_3D ( 'NONE', #131, #217, #110 ) ;
#240 = APPROVAL_STATUS ( 'not_yet_approved' ) ;
#241 = ORIENTED_EDGE ( 'NONE', *, *, #235, .F. ) ;
#242 = DIRECTION ( 'NONE',  ( 3.491481338843133355E-15, -1.224646799147353207E-16, 1.000000000000000000 ) ) ;
#243 = APPROVAL ( #206, 'UNSPECIFIED' ) ;
ENDSEC;
END-ISO-10303-21;
