ISO-10303-21;
HEADER;
FILE_DESCRIPTION (( 'STEP AP203' ),
    '1' );
FILE_NAME ('969403.step',
    '2021-11-30T13:08:17',
    ( '' ),
    ( '' ),
    'SwSTEP 2.0',
    'SolidWorks 2019',
    '' );
FILE_SCHEMA (( 'CONFIG_CONTROL_DESIGN' ));
ENDSEC;

DATA;
#1 = LOCAL_TIME ( 14, 8, 17.00000000000000000, #86 ) ;
#2 = CARTESIAN_POINT ( 'NONE',  ( 8.728703347107827472E-16, -3.061616997868381169E-17, 0.2499999999999998335 ) ) ;
#3 = ADVANCED_FACE ( 'NONE', ( #188, #240 ), #57, .T. ) ;
#4 = EDGE_LOOP ( 'NONE', ( #39 ) ) ;
#5 = DIRECTION ( 'NONE',  ( 3.491481338843133355E-15, -1.224646799147353207E-16, 1.000000000000000000 ) ) ;
#6 = DIRECTION ( 'NONE',  ( 0.0000000000000000000, 1.000000000000000000, 0.0000000000000000000 ) ) ;
#7 = ORIENTED_EDGE ( 'NONE', *, *, #230, .T. ) ;
#8 = AXIS2_PLACEMENT_3D ( 'NONE', #85, #82, #164 ) ;
#9 = ADVANCED_BREP_SHAPE_REPRESENTATION ( '969403', ( #203, #124, #45 ), #209 ) ;
#10 = APPROVAL ( #182, 'UNSPECIFIED' ) ;
#11 = DIRECTION ( 'NONE',  ( -3.706087128391095024E-31, -1.000000000000000000, -1.390894384202060593E-16 ) ) ;
#12 = APPLICATION_CONTEXT ( 'configuration controlled 3d designs of mechanical parts and assemblies' ) ;
#13 = LOCAL_TIME ( 14, 8, 17.00000000000000000, #108 ) ;
#14 = FACE_OUTER_BOUND ( 'NONE', #130, .T. ) ;
#15 = ADVANCED_FACE ( 'NONE', ( #133 ), #198, .F. ) ;
#16 = DIRECTION ( 'NONE',  ( 3.706087128391095024E-31, 1.000000000000000000, 1.390894384202060593E-16 ) ) ;
#17 = CALENDAR_DATE ( 2021, 30, 11 ) ;
#18 = CARTESIAN_POINT ( 'NONE',  ( 1.946500846405046877E-13, 1.249999999999998446, 55.75000000000000000 ) ) ;
#19 = AXIS2_PLACEMENT_3D ( 'NONE', #56, #26, #6 ) ;
#20 = CALENDAR_DATE ( 2021, 30, 11 ) ;
#21 = FACE_OUTER_BOUND ( 'NONE', #183, .T. ) ;
#22 = ORIENTED_EDGE ( 'NONE', *, *, #28, .T. ) ;
#23 = PERSON_AND_ORGANIZATION ( #98, #51 ) ;
#24 = CALENDAR_DATE ( 2021, 30, 11 ) ;
#25 = AXIS2_PLACEMENT_3D ( 'NONE', #238, #227, #99 ) ;
#26 = DIRECTION ( 'NONE',  ( -3.491481338843133355E-15, 1.224646799147353207E-16, -1.000000000000000000 ) ) ;
#27 = FACE_BOUND ( 'NONE', #166, .T. ) ;
#28 = EDGE_CURVE ( 'NONE', #157, #157, #50, .T. ) ;
#29 = PRODUCT_DEFINITION_FORMATION_WITH_SPECIFIED_SOURCE ( 'ANY', '', #103, .NOT_KNOWN. ) ;
#30 = EDGE_LOOP ( 'NONE', ( #189 ) ) ;
#31 = CLOSED_SHELL ( 'NONE', ( #15, #87, #3, #35, #132 ) ) ;
#32 = PERSON_AND_ORGANIZATION_ROLE ( 'creator' ) ;
#33 = VERTEX_POINT ( 'NONE', #109 ) ;
#34 = LOCAL_TIME ( 14, 8, 17.00000000000000000, #36 ) ;
#35 = ADVANCED_FACE ( 'NONE', ( #44, #27 ), #54, .T. ) ;
#36 = COORDINATED_UNIVERSAL_TIME_OFFSET ( 1, 0, .AHEAD. ) ;
#37 = PERSON_AND_ORGANIZATION ( #98, #51 ) ;
#38 = CALENDAR_DATE ( 2021, 30, 11 ) ;
#39 = ORIENTED_EDGE ( 'NONE', *, *, #52, .F. ) ;
#40 = APPROVAL_ROLE ( '' ) ;
#41 = CARTESIAN_POINT ( 'NONE',  ( 7.169828050628217614E-14, -2.514837148047907067E-15, 20.53520369953879765 ) ) ;
#42 = AXIS2_PLACEMENT_3D ( 'NONE', #83, #211, #102 ) ;
#43 = CONICAL_SURFACE ( 'NONE', #19, 1.249999999999996003, 0.5235987755982913772 ) ;
#44 = FACE_OUTER_BOUND ( 'NONE', #220, .T. ) ;
#45 = AXIS2_PLACEMENT_3D ( 'NONE', #221, #74, #75 ) ;
#46 = CC_DESIGN_APPROVAL ( #167, ( #144 ) ) ;
#47 = CIRCLE ( 'NONE', #42, 1.309000000000000163 ) ;
#48 = FACE_OUTER_BOUND ( 'NONE', #80, .T. ) ;
#49 = CC_DESIGN_DATE_AND_TIME_ASSIGNMENT ( #106, #84, ( #231 ) ) ;
#50 = CIRCLE ( 'NONE', #185, 1.559000000000000163 ) ;
#51 = ORGANIZATION ( 'UNSPECIFIED', 'UNSPECIFIED', '' ) ;
#52 = EDGE_CURVE ( 'NONE', #149, #149, #47, .T. ) ;
#53 = CYLINDRICAL_SURFACE ( 'NONE', #101, 1.558999999999998831 ) ;
#54 = CONICAL_SURFACE ( 'NONE', #151, 1.000000000000005551, 0.7853981633974473908 ) ;
#55 = CC_DESIGN_PERSON_AND_ORGANIZATION_ASSIGNMENT ( #23, #113, ( #29 ) ) ;
#56 = CARTESIAN_POINT ( 'NONE',  ( 7.169828050628217614E-14, -2.514837148047907067E-15, 20.53520369953879765 ) ) ;
#57 = CYLINDRICAL_SURFACE ( 'NONE', #76, 1.250000000000000666 ) ;
#58 = CARTESIAN_POINT ( 'NONE',  ( 8.728703347107833388E-16, 1.558999999999997499, 0.2500000000000000555 ) ) ;
#59 = APPROVAL_ROLE ( '' ) ;
#60 = VERTEX_POINT ( 'NONE', #18 ) ;
#61 = MECHANICAL_CONTEXT ( 'NONE', #12, 'mechanical' ) ;
#62 = APPLICATION_CONTEXT ( 'configuration controlled 3d designs of mechanical parts and assemblies' ) ;
#63 = CIRCLE ( 'NONE', #171, 1.249999999999996003 ) ;
#64 = ORIENTED_EDGE ( 'NONE', *, *, #242, .F. ) ;
#65 = DIRECTION ( 'NONE',  ( 3.491481338843133355E-15, -1.224646799147353207E-16, 1.000000000000000000 ) ) ;
#66 = EDGE_LOOP ( 'NONE', ( #79 ) ) ;
#67 = CC_DESIGN_PERSON_AND_ORGANIZATION_ASSIGNMENT ( #172, #137, ( #144 ) ) ;
#68 = ADVANCED_FACE ( 'NONE', ( #48 ), #150, .T. ) ;
#69 = LOCAL_TIME ( 14, 8, 17.00000000000000000, #193 ) ;
#70 = FACE_BOUND ( 'NONE', #114, .T. ) ;
#71 = PERSON_AND_ORGANIZATION ( #98, #51 ) ;
#72 = CARTESIAN_POINT ( 'NONE',  ( 6.982962677686265448E-14, 1.558999999999997943, 19.99999999999999645 ) ) ;
#73 = DIRECTION ( 'NONE',  ( 4.275831445896958607E-31, 1.000000000000000000, 1.224646799147352961E-16 ) ) ;
#74 = DIRECTION ( 'NONE',  ( 0.0000000000000000000, 0.0000000000000000000, 1.000000000000000000 ) ) ;
#75 = DIRECTION ( 'NONE',  ( 1.000000000000000000, 0.0000000000000000000, 0.0000000000000000000 ) ) ;
#76 = AXIS2_PLACEMENT_3D ( 'NONE', #88, #168, #192 ) ;
#77 = PERSON_AND_ORGANIZATION ( #98, #51 ) ;
#78 = DIRECTION ( 'NONE',  ( 0.0000000000000000000, 1.000000000000000000, 0.0000000000000000000 ) ) ;
#79 = ORIENTED_EDGE ( 'NONE', *, *, #196, .T. ) ;
#80 = EDGE_LOOP ( 'NONE', ( #92 ) ) ;
#81 = AXIS2_PLACEMENT_3D ( 'NONE', #184, #173, #16 ) ;
#82 = DIRECTION ( 'NONE',  ( -3.491481338843133355E-15, 1.224646799147353207E-16, -1.000000000000000000 ) ) ;
#83 = CARTESIAN_POINT ( 'NONE',  ( 1.973879942853525525E-31, -6.923438848215870921E-33, 5.653416848871232484E-17 ) ) ;
#84 = DATE_TIME_ROLE ( 'creation_date' ) ;
#85 = CARTESIAN_POINT ( 'NONE',  ( 1.955229549752154679E-13, -6.858022075225178552E-15, 56.00000000000000000 ) ) ;
#86 = COORDINATED_UNIVERSAL_TIME_OFFSET ( 1, 0, .AHEAD. ) ;
#87 = ADVANCED_FACE ( 'NONE', ( #14, #70 ), #43, .T. ) ;
#88 = CARTESIAN_POINT ( 'NONE',  ( 0.0000000000000000000, 0.0000000000000000000, 0.0000000000000000000 ) ) ;
#89 = CARTESIAN_POINT ( 'NONE',  ( 7.169828050628217614E-14, 1.249999999999993339, 20.53520369953879765 ) ) ;
#90 = DESIGN_CONTEXT ( 'detailed design', #62, 'design' ) ;
#91 = CALENDAR_DATE ( 2021, 30, 11 ) ;
#92 = ORIENTED_EDGE ( 'NONE', *, *, #28, .F. ) ;
#93 = DATE_AND_TIME ( #38, #212 ) ;
#94 = VERTEX_POINT ( 'NONE', #241 ) ;
#95 = DATE_AND_TIME ( #24, #69 ) ;
#96 = DIRECTION ( 'NONE',  ( -3.491481338843133355E-15, 1.224646799147353207E-16, -1.000000000000000000 ) ) ;
#97 = PLANE ( 'NONE',  #233 ) ;
#98 = PERSON ( 'UNSPECIFIED', 'UNSPECIFIED', 'UNSPECIFIED', ('UNSPECIFIED'), ('UNSPECIFIED'), ('UNSPECIFIED') ) ;
#99 = DIRECTION ( 'NONE',  ( -4.275831445896958607E-31, -1.000000000000000000, -1.224646799147353207E-16 ) ) ;
#100 = ORIENTED_EDGE ( 'NONE', *, *, #52, .T. ) ;
#101 = AXIS2_PLACEMENT_3D ( 'NONE', #197, #140, #73 ) ;
#102 = DIRECTION ( 'NONE',  ( 4.275831445896958607E-31, 1.000000000000000000, 1.224646799147353207E-16 ) ) ;
#103 = PRODUCT ( '969403', '969403', '', ( #61 ) ) ;
#104 = CC_DESIGN_APPROVAL ( #10, ( #29 ) ) ;
#105 = DIRECTION ( 'NONE',  ( -4.275831445896958607E-31, -1.000000000000000000, -1.224646799147353207E-16 ) ) ;
#106 = DATE_AND_TIME ( #20, #13 ) ;
#107 = APPROVAL_PERSON_ORGANIZATION ( #175, #141, #59 ) ;
#108 = COORDINATED_UNIVERSAL_TIME_OFFSET ( 1, 0, .AHEAD. ) ;
#109 = CARTESIAN_POINT ( 'NONE',  ( 6.982962677686265448E-14, 1.558999999999997943, 19.99999999999999645 ) ) ;
#110 = ADVANCED_FACE ( 'NONE', ( #119 ), #97, .F. ) ;
#111 = PERSON_AND_ORGANIZATION ( #98, #51 ) ;
#112 = DIRECTION ( 'NONE',  ( 3.491481338843133355E-15, -1.224646799147353207E-16, 1.000000000000000000 ) ) ;
#113 = PERSON_AND_ORGANIZATION_ROLE ( 'design_supplier' ) ;
#114 = EDGE_LOOP ( 'NONE', ( #7 ) ) ;
#115 = PLANE ( 'NONE',  #205 ) ;
#116 = ADVANCED_FACE ( 'NONE', ( #176, #228 ), #163, .T. ) ;
#117 = APPROVAL_STATUS ( 'not_yet_approved' ) ;
#118 = FACE_OUTER_BOUND ( 'NONE', #162, .T. ) ;
#119 = FACE_OUTER_BOUND ( 'NONE', #201, .T. ) ;
#120 =( NAMED_UNIT ( * ) SI_UNIT ( $, .STERADIAN. ) SOLID_ANGLE_UNIT ( ) );
#121 = CIRCLE ( 'NONE', #232, 1.250000000000005329 ) ;
#122 = EDGE_CURVE ( 'NONE', #94, #94, #224, .T. ) ;
#123 = APPROVAL_PERSON_ORGANIZATION ( #111, #10, #165 ) ;
#124 = MANIFOLD_SOLID_BREP ( 'Corps-Déplacer/Copier1[2]', #129 ) ;
#125 = EDGE_CURVE ( 'NONE', #33, #33, #177, .T. ) ;
#126 = DIRECTION ( 'NONE',  ( 0.0000000000000000000, 1.000000000000000000, 0.0000000000000000000 ) ) ;
#127 = CC_DESIGN_PERSON_AND_ORGANIZATION_ASSIGNMENT ( #219, #200, ( #29 ) ) ;
#128 = ADVANCED_FACE ( 'NONE', ( #118, #215 ), #53, .T. ) ;
#129 = CLOSED_SHELL ( 'NONE', ( #110, #116, #128, #68 ) ) ;
#130 = EDGE_LOOP ( 'NONE', ( #136 ) ) ;
#131 = DIRECTION ( 'NONE',  ( 0.0000000000000000000, 1.000000000000000000, 0.0000000000000000000 ) ) ;
#132 = ADVANCED_FACE ( 'NONE', ( #21 ), #115, .F. ) ;
#133 = FACE_OUTER_BOUND ( 'NONE', #210, .T. ) ;
#134 = PRODUCT_RELATED_PRODUCT_CATEGORY ( 'detail', '', ( #103 ) ) ;
#135 = DATE_AND_TIME ( #91, #34 ) ;
#136 = ORIENTED_EDGE ( 'NONE', *, *, #125, .F. ) ;
#137 = PERSON_AND_ORGANIZATION_ROLE ( 'classification_officer' ) ;
#138 = CARTESIAN_POINT ( 'NONE',  ( 7.570943305532645426E-31, 1.309000000000000163, 2.168404344971008868E-16 ) ) ;
#139 = APPROVAL_DATE_TIME ( #135, #141 ) ;
#140 = DIRECTION ( 'NONE',  ( -3.491481338843133355E-15, 1.224646799147353207E-16, -1.000000000000000000 ) ) ;
#141 = APPROVAL ( #170, 'UNSPECIFIED' ) ;
#142 = ORIENTED_EDGE ( 'NONE', *, *, #122, .T. ) ;
#143 = ORIENTED_EDGE ( 'NONE', *, *, #196, .F. ) ;
#144 = SECURITY_CLASSIFICATION ( '', '', #186 ) ;
#145 = CARTESIAN_POINT ( 'NONE',  ( 6.982962677686265448E-14, -2.449293598294706119E-15, 19.99999999999999645 ) ) ;
#146 = CARTESIAN_POINT ( 'NONE',  ( 1.955229549752154679E-13, -6.858022075225178552E-15, 56.00000000000000000 ) ) ;
#147 = CC_DESIGN_DATE_AND_TIME_ASSIGNMENT ( #93, #243, ( #144 ) ) ;
#148 = APPLICATION_PROTOCOL_DEFINITION ( 'international standard', 'config_control_design', 1994, #62 ) ;
#149 = VERTEX_POINT ( 'NONE', #138 ) ;
#150 = PLANE ( 'NONE',  #207 ) ;
#151 = AXIS2_PLACEMENT_3D ( 'NONE', #146, #213, #126 ) ;
#152 = CARTESIAN_POINT ( 'NONE',  ( 1.955229549752154679E-13, 7.498798913309223722E-33, 56.00000000000000000 ) ) ;
#153 = ORIENTED_EDGE ( 'NONE', *, *, #125, .T. ) ;
#154 = CC_DESIGN_SECURITY_CLASSIFICATION ( #144, ( #29 ) ) ;
#155 = PERSON_AND_ORGANIZATION_ROLE ( 'design_owner' ) ;
#156 =( NAMED_UNIT ( * ) PLANE_ANGLE_UNIT ( ) SI_UNIT ( $, .RADIAN. ) );
#157 = VERTEX_POINT ( 'NONE', #72 ) ;
#158 = DIRECTION ( 'NONE',  ( -3.491481338843133355E-15, 1.224646799147353207E-16, -1.000000000000000000 ) ) ;
#159 = APPROVAL_DATE_TIME ( #95, #167 ) ;
#160 = EDGE_LOOP ( 'NONE', ( #22 ) ) ;
#161 = DIRECTION ( 'NONE',  ( -4.275831445896958607E-31, -1.000000000000000000, -1.224646799147353207E-16 ) ) ;
#162 = EDGE_LOOP ( 'NONE', ( #64 ) ) ;
#163 = CONICAL_SURFACE ( 'NONE', #190, 1.558999999999997499, 0.7853981633974430610 ) ;
#164 = DIRECTION ( 'NONE',  ( 0.0000000000000000000, 1.000000000000000000, 0.0000000000000000000 ) ) ;
#165 = APPROVAL_ROLE ( '' ) ;
#166 = EDGE_LOOP ( 'NONE', ( #142 ) ) ;
#167 = APPROVAL ( #117, 'UNSPECIFIED' ) ;
#168 = DIRECTION ( 'NONE',  ( -3.491481338843133355E-15, 1.224646799147353207E-16, -1.000000000000000000 ) ) ;
#169 = VERTEX_POINT ( 'NONE', #58 ) ;
#170 = APPROVAL_STATUS ( 'not_yet_approved' ) ;
#171 = AXIS2_PLACEMENT_3D ( 'NONE', #41, #217, #236 ) ;
#172 = PERSON_AND_ORGANIZATION ( #98, #51 ) ;
#173 = DIRECTION ( 'NONE',  ( -3.491481338843133355E-15, 1.224646799147353207E-16, -1.000000000000000000 ) ) ;
#174 = CARTESIAN_POINT ( 'NONE',  ( 9.869399714267627627E-32, -3.461719424107935461E-33, 2.826708424435616242E-17 ) ) ;
#175 = PERSON_AND_ORGANIZATION ( #98, #51 ) ;
#176 = FACE_BOUND ( 'NONE', #4, .T. ) ;
#177 = CIRCLE ( 'NONE', #225, 1.559000000000000163 ) ;
#178 = DIRECTION ( 'NONE',  ( -3.491481338843133355E-15, 1.224646799147353207E-16, -1.000000000000000000 ) ) ;
#179 = ORIENTED_EDGE ( 'NONE', *, *, #230, .F. ) ;
#180 = PRODUCT_DEFINITION_SHAPE ( 'NONE', 'NONE',  #231 ) ;
#181 = APPROVAL_PERSON_ORGANIZATION ( #77, #167, #40 ) ;
#182 = APPROVAL_STATUS ( 'not_yet_approved' ) ;
#183 = EDGE_LOOP ( 'NONE', ( #208 ) ) ;
#184 = CARTESIAN_POINT ( 'NONE',  ( 8.728703347107827472E-16, -3.061616997868381169E-17, 0.2499999999999998335 ) ) ;
#185 = AXIS2_PLACEMENT_3D ( 'NONE', #195, #178, #78 ) ;
#186 = SECURITY_CLASSIFICATION_LEVEL ( 'unclassified' ) ;
#187 = CC_DESIGN_PERSON_AND_ORGANIZATION_ASSIGNMENT ( #37, #32, ( #231 ) ) ;
#188 = FACE_OUTER_BOUND ( 'NONE', #229, .T. ) ;
#189 = ORIENTED_EDGE ( 'NONE', *, *, #242, .T. ) ;
#190 = AXIS2_PLACEMENT_3D ( 'NONE', #2, #65, #11 ) ;
#191 = CIRCLE ( 'NONE', #81, 1.558999999999997499 ) ;
#192 = DIRECTION ( 'NONE',  ( 4.275831445896957731E-31, 1.000000000000000000, 1.224646799147353454E-16 ) ) ;
#193 = COORDINATED_UNIVERSAL_TIME_OFFSET ( 1, 0, .AHEAD. ) ;
#194 = DIRECTION ( 'NONE',  ( 4.275831445896958607E-31, 1.000000000000000000, 1.224646799147353207E-16 ) ) ;
#195 = CARTESIAN_POINT ( 'NONE',  ( 6.982962677686265448E-14, -2.449293598294706119E-15, 19.99999999999999645 ) ) ;
#196 = EDGE_CURVE ( 'NONE', #60, #60, #121, .T. ) ;
#197 = CARTESIAN_POINT ( 'NONE',  ( 0.0000000000000000000, 0.0000000000000000000, 0.0000000000000000000 ) ) ;
#198 = PLANE ( 'NONE',  #25 ) ;
#199 = DIRECTION ( 'NONE',  ( 0.0000000000000000000, 1.000000000000000000, 0.0000000000000000000 ) ) ;
#200 = PERSON_AND_ORGANIZATION_ROLE ( 'creator' ) ;
#201 = EDGE_LOOP ( 'NONE', ( #100 ) ) ;
#202 = COORDINATED_UNIVERSAL_TIME_OFFSET ( 1, 0, .AHEAD. ) ;
#203 = MANIFOLD_SOLID_BREP ( 'Corps-Déplacer/Copier1[1]', #31 ) ;
#204 = DIRECTION ( 'NONE',  ( -3.491481338843133355E-15, 1.224646799147353207E-16, -1.000000000000000000 ) ) ;
#205 = AXIS2_PLACEMENT_3D ( 'NONE', #152, #96, #194 ) ;
#206 = CARTESIAN_POINT ( 'NONE',  ( 1.946500846405046877E-13, -6.827405905246494765E-15, 55.75000000000000000 ) ) ;
#207 = AXIS2_PLACEMENT_3D ( 'NONE', #216, #112, #105 ) ;
#208 = ORIENTED_EDGE ( 'NONE', *, *, #122, .F. ) ;
#209 =( GEOMETRIC_REPRESENTATION_CONTEXT ( 3 ) GLOBAL_UNCERTAINTY_ASSIGNED_CONTEXT ( ( #235 ) ) GLOBAL_UNIT_ASSIGNED_CONTEXT ( ( #239, #156, #120 ) ) REPRESENTATION_CONTEXT ( 'NONE', 'WORKASPACE' ) );
#210 = EDGE_LOOP ( 'NONE', ( #153 ) ) ;
#211 = DIRECTION ( 'NONE',  ( -3.491481338843133355E-15, 1.224646799147353207E-16, -1.000000000000000000 ) ) ;
#212 = LOCAL_TIME ( 14, 8, 17.00000000000000000, #202 ) ;
#213 = DIRECTION ( 'NONE',  ( -3.491481338843133355E-15, 1.224646799147353207E-16, -1.000000000000000000 ) ) ;
#214 = CC_DESIGN_APPROVAL ( #141, ( #231 ) ) ;
#215 = FACE_OUTER_BOUND ( 'NONE', #160, .T. ) ;
#216 = CARTESIAN_POINT ( 'NONE',  ( 6.982962677686265448E-14, 4.365753379580025983E-31, 19.99999999999999645 ) ) ;
#217 = DIRECTION ( 'NONE',  ( -3.491481338843133355E-15, 1.224646799147353207E-16, -1.000000000000000000 ) ) ;
#218 = CC_DESIGN_PERSON_AND_ORGANIZATION_ASSIGNMENT ( #71, #155, ( #103 ) ) ;
#219 = PERSON_AND_ORGANIZATION ( #98, #51 ) ;
#220 = EDGE_LOOP ( 'NONE', ( #143 ) ) ;
#221 = CARTESIAN_POINT ( 'NONE',  ( 0.0000000000000000000, 0.0000000000000000000, 0.0000000000000000000 ) ) ;
#222 = VERTEX_POINT ( 'NONE', #89 ) ;
#223 = APPLICATION_PROTOCOL_DEFINITION ( 'international standard', 'config_control_design', 1994, #12 ) ;
#224 = CIRCLE ( 'NONE', #8, 1.000000000000005551 ) ;
#225 = AXIS2_PLACEMENT_3D ( 'NONE', #145, #158, #131 ) ;
#226 = SHAPE_DEFINITION_REPRESENTATION ( #180, #9 ) ;
#227 = DIRECTION ( 'NONE',  ( 3.491481338843133355E-15, -1.224646799147353207E-16, 1.000000000000000000 ) ) ;
#228 = FACE_OUTER_BOUND ( 'NONE', #30, .T. ) ;
#229 = EDGE_LOOP ( 'NONE', ( #179 ) ) ;
#230 = EDGE_CURVE ( 'NONE', #222, #222, #63, .T. ) ;
#231 = PRODUCT_DEFINITION ( 'UNKNOWN', '', #29, #90 ) ;
#232 = AXIS2_PLACEMENT_3D ( 'NONE', #206, #204, #199 ) ;
#233 = AXIS2_PLACEMENT_3D ( 'NONE', #174, #5, #161 ) ;
#234 = APPROVAL_DATE_TIME ( #237, #10 ) ;
#235 = UNCERTAINTY_MEASURE_WITH_UNIT (LENGTH_MEASURE( 1.000000000000000082E-05 ), #239, 'distance_accuracy_value', 'NONE');
#236 = DIRECTION ( 'NONE',  ( 0.0000000000000000000, 1.000000000000000000, 0.0000000000000000000 ) ) ;
#237 = DATE_AND_TIME ( #17, #1 ) ;
#238 = CARTESIAN_POINT ( 'NONE',  ( 6.982962677686265448E-14, 4.365753379580025983E-31, 19.99999999999999645 ) ) ;
#239 =( LENGTH_UNIT ( ) NAMED_UNIT ( * ) SI_UNIT ( .MILLI., .METRE. ) );
#240 = FACE_OUTER_BOUND ( 'NONE', #66, .T. ) ;
#241 = CARTESIAN_POINT ( 'NONE',  ( 1.955229549752154679E-13, 0.9999999999999985567, 56.00000000000000000 ) ) ;
#242 = EDGE_CURVE ( 'NONE', #169, #169, #191, .T. ) ;
#243 = DATE_TIME_ROLE ( 'classification_date' ) ;
ENDSEC;
END-ISO-10303-21;
