ISO-10303-21;
HEADER;
FILE_DESCRIPTION (( 'STEP AP203' ),
    '1' );
FILE_NAME ('969402.step',
    '2021-11-30T13:08:17',
    ( '' ),
    ( '' ),
    'SwSTEP 2.0',
    'SolidWorks 2019',
    '' );
FILE_SCHEMA (( 'CONFIG_CONTROL_DESIGN' ));
ENDSEC;

DATA;
#1 = EDGE_LOOP ( 'NONE', ( #26 ) ) ;
#2 = CARTESIAN_POINT ( 'NONE',  ( 1.955229549752154679E-13, 7.498798913309223722E-33, 56.00000000000000000 ) ) ;
#3 = FACE_BOUND ( 'NONE', #50, .T. ) ;
#4 = CC_DESIGN_PERSON_AND_ORGANIZATION_ASSIGNMENT ( #176, #179, ( #229 ) ) ;
#5 = AXIS2_PLACEMENT_3D ( 'NONE', #74, #34, #47 ) ;
#6 = AXIS2_PLACEMENT_3D ( 'NONE', #115, #169, #69 ) ;
#7 = FACE_OUTER_BOUND ( 'NONE', #93, .T. ) ;
#8 = ORIENTED_EDGE ( 'NONE', *, *, #32, .F. ) ;
#9 = PERSON_AND_ORGANIZATION ( #100, #182 ) ;
#10 = SECURITY_CLASSIFICATION_LEVEL ( 'unclassified' ) ;
#11 = CALENDAR_DATE ( 2021, 30, 11 ) ;
#12 = APPROVAL_PERSON_ORGANIZATION ( #227, #90, #214 ) ;
#13 = CARTESIAN_POINT ( 'NONE',  ( 1.955229549752154679E-13, -6.858022075225178552E-15, 56.00000000000000000 ) ) ;
#14 = CARTESIAN_POINT ( 'NONE',  ( 1.955229549752154679E-13, 0.9999999999999985567, 56.00000000000000000 ) ) ;
#15 = PLANE ( 'NONE',  #58 ) ;
#16 = EDGE_LOOP ( 'NONE', ( #36 ) ) ;
#17 = CIRCLE ( 'NONE', #121, 1.304000000000000492 ) ;
#18 = CC_DESIGN_PERSON_AND_ORGANIZATION_ASSIGNMENT ( #105, #140, ( #219 ) ) ;
#19 = DIRECTION ( 'NONE',  ( -3.491481338843133355E-15, 1.224646799147353207E-16, -1.000000000000000000 ) ) ;
#20 = CC_DESIGN_SECURITY_CLASSIFICATION ( #237, ( #229 ) ) ;
#21 = APPROVAL_STATUS ( 'not_yet_approved' ) ;
#22 = DIRECTION ( 'NONE',  ( 0.0000000000000000000, 1.000000000000000000, 0.0000000000000000000 ) ) ;
#23 = COORDINATED_UNIVERSAL_TIME_OFFSET ( 1, 0, .AHEAD. ) ;
#24 = CARTESIAN_POINT ( 'NONE',  ( 6.982962677686266711E-14, 1.165313351128258785E-32, 20.00000000000000000 ) ) ;
#25 = ADVANCED_FACE ( 'NONE', ( #37 ), #98, .F. ) ;
#26 = ORIENTED_EDGE ( 'NONE', *, *, #60, .F. ) ;
#27 = DATE_AND_TIME ( #164, #206 ) ;
#28 = LOCAL_TIME ( 14, 8, 17.00000000000000000, #141 ) ;
#29 =( LENGTH_UNIT ( ) NAMED_UNIT ( * ) SI_UNIT ( .MILLI., .METRE. ) );
#30 = PERSON_AND_ORGANIZATION_ROLE ( 'classification_officer' ) ;
#31 = APPROVAL_PERSON_ORGANIZATION ( #84, #210, #211 ) ;
#32 = EDGE_CURVE ( 'NONE', #183, #183, #75, .T. ) ;
#33 = CARTESIAN_POINT ( 'NONE',  ( 7.166804339091940741E-14, -2.513776572809182418E-15, 20.52654344550095189 ) ) ;
#34 = DIRECTION ( 'NONE',  ( -3.491481338843133355E-15, 1.224646799147353207E-16, -1.000000000000000000 ) ) ;
#35 = CC_DESIGN_APPROVAL ( #113, ( #229 ) ) ;
#36 = ORIENTED_EDGE ( 'NONE', *, *, #83, .F. ) ;
#37 = FACE_OUTER_BOUND ( 'NONE', #171, .T. ) ;
#38 = CIRCLE ( 'NONE', #129, 1.250000000000005329 ) ;
#39 = DIRECTION ( 'NONE',  ( -3.491481338843133355E-15, 1.224646799147353207E-16, -1.000000000000000000 ) ) ;
#40 = DIRECTION ( 'NONE',  ( 0.0000000000000000000, 1.000000000000000000, 0.0000000000000000000 ) ) ;
#41 = DIRECTION ( 'NONE',  ( 1.000000000000000000, 0.0000000000000000000, 0.0000000000000000000 ) ) ;
#42 = DIRECTION ( 'NONE',  ( 3.491481338843133355E-15, -1.224646799147353207E-16, 1.000000000000000000 ) ) ;
#43 = APPROVAL_DATE_TIME ( #107, #113 ) ;
#44 = DIRECTION ( 'NONE',  ( -3.491481338843133355E-15, 1.224646799147353207E-16, -1.000000000000000000 ) ) ;
#45 = AXIS2_PLACEMENT_3D ( 'NONE', #24, #42, #108 ) ;
#46 = CARTESIAN_POINT ( 'NONE',  ( 0.0000000000000000000, 0.0000000000000000000, 0.0000000000000000000 ) ) ;
#47 = DIRECTION ( 'NONE',  ( 3.718011475651040104E-31, 1.000000000000000000, 1.395369591358437763E-16 ) ) ;
#48 = ORIENTED_EDGE ( 'NONE', *, *, #185, .T. ) ;
#49 = CARTESIAN_POINT ( 'NONE',  ( 6.982962677686266711E-14, 1.165313351128258785E-32, 20.00000000000000000 ) ) ;
#50 = EDGE_LOOP ( 'NONE', ( #48 ) ) ;
#51 = FACE_OUTER_BOUND ( 'NONE', #239, .T. ) ;
#52 = ORIENTED_EDGE ( 'NONE', *, *, #88, .F. ) ;
#53 = CARTESIAN_POINT ( 'NONE',  ( 1.135641495829896858E-30, 1.304000000000000492, 3.252606517456513302E-16 ) ) ;
#54 = FACE_OUTER_BOUND ( 'NONE', #226, .T. ) ;
#55 = DIRECTION ( 'NONE',  ( -3.491481338843133355E-15, 1.224646799147353207E-16, -1.000000000000000000 ) ) ;
#56 = ORIENTED_EDGE ( 'NONE', *, *, #128, .F. ) ;
#57 = COORDINATED_UNIVERSAL_TIME_OFFSET ( 1, 0, .AHEAD. ) ;
#58 = AXIS2_PLACEMENT_3D ( 'NONE', #49, #147, #134 ) ;
#59 = APPROVAL_STATUS ( 'not_yet_approved' ) ;
#60 = EDGE_CURVE ( 'NONE', #149, #149, #212, .T. ) ;
#61 = PERSON_AND_ORGANIZATION ( #100, #182 ) ;
#62 = DIRECTION ( 'NONE',  ( -3.491481338843133355E-15, 1.224646799147353207E-16, -1.000000000000000000 ) ) ;
#63 = AXIS2_PLACEMENT_3D ( 'NONE', #99, #78, #22 ) ;
#64 = DATE_AND_TIME ( #230, #130 ) ;
#65 = PLANE ( 'NONE',  #240 ) ;
#66 = CC_DESIGN_DATE_AND_TIME_ASSIGNMENT ( #64, #139, ( #237 ) ) ;
#67 = EDGE_CURVE ( 'NONE', #158, #158, #38, .T. ) ;
#68 = DIRECTION ( 'NONE',  ( 0.0000000000000000000, 1.000000000000000000, 0.0000000000000000000 ) ) ;
#69 = DIRECTION ( 'NONE',  ( -3.718011475651040104E-31, -1.000000000000000000, -1.395369591358437763E-16 ) ) ;
#70 = ORIENTED_EDGE ( 'NONE', *, *, #83, .T. ) ;
#71 = AXIS2_PLACEMENT_3D ( 'NONE', #198, #117, #89 ) ;
#72 = VERTEX_POINT ( 'NONE', #159 ) ;
#73 = CYLINDRICAL_SURFACE ( 'NONE', #142, 1.250000000000000666 ) ;
#74 = CARTESIAN_POINT ( 'NONE',  ( 8.728703347107825500E-16, -3.061616997868380553E-17, 0.2499999999999997780 ) ) ;
#75 = CIRCLE ( 'NONE', #96, 1.000000000000005551 ) ;
#76 = LOCAL_TIME ( 14, 8, 17.00000000000000000, #57 ) ;
#77 = APPLICATION_PROTOCOL_DEFINITION ( 'international standard', 'config_control_design', 1994, #213 ) ;
#78 = DIRECTION ( 'NONE',  ( -3.491481338843133355E-15, 1.224646799147353207E-16, -1.000000000000000000 ) ) ;
#79 = COORDINATED_UNIVERSAL_TIME_OFFSET ( 1, 0, .AHEAD. ) ;
#80 = CYLINDRICAL_SURFACE ( 'NONE', #112, 1.553999999999998050 ) ;
#81 = AXIS2_PLACEMENT_3D ( 'NONE', #13, #197, #68 ) ;
#82 = DATE_AND_TIME ( #138, #76 ) ;
#83 = EDGE_CURVE ( 'NONE', #72, #72, #204, .T. ) ;
#84 = PERSON_AND_ORGANIZATION ( #100, #182 ) ;
#85 = FACE_OUTER_BOUND ( 'NONE', #104, .T. ) ;
#86 = DATE_TIME_ROLE ( 'creation_date' ) ;
#87 = CLOSED_SHELL ( 'NONE', ( #178, #223, #163, #157 ) ) ;
#88 = EDGE_CURVE ( 'NONE', #154, #154, #110, .T. ) ;
#89 = DIRECTION ( 'NONE',  ( 0.0000000000000000000, 1.000000000000000000, 0.0000000000000000000 ) ) ;
#90 = APPROVAL ( #144, 'UNSPECIFIED' ) ;
#91 = FACE_OUTER_BOUND ( 'NONE', #109, .T. ) ;
#92 = CARTESIAN_POINT ( 'NONE',  ( 1.946500846405046877E-13, 1.249999999999998446, 55.75000000000000000 ) ) ;
#93 = EDGE_LOOP ( 'NONE', ( #137 ) ) ;
#94 = FACE_BOUND ( 'NONE', #135, .T. ) ;
#95 = ORIENTED_EDGE ( 'NONE', *, *, #128, .T. ) ;
#96 = AXIS2_PLACEMENT_3D ( 'NONE', #228, #201, #101 ) ;
#97 = APPROVAL_PERSON_ORGANIZATION ( #61, #113, #160 ) ;
#98 = PLANE ( 'NONE',  #218 ) ;
#99 = CARTESIAN_POINT ( 'NONE',  ( 6.982962677686266711E-14, -2.449293598294706513E-15, 20.00000000000000000 ) ) ;
#100 = PERSON ( 'UNSPECIFIED', 'UNSPECIFIED', 'UNSPECIFIED', ('UNSPECIFIED'), ('UNSPECIFIED'), ('UNSPECIFIED') ) ;
#101 = DIRECTION ( 'NONE',  ( 0.0000000000000000000, 1.000000000000000000, 0.0000000000000000000 ) ) ;
#102 = CARTESIAN_POINT ( 'NONE',  ( 6.982962677686266711E-14, 1.553999999999996273, 20.00000000000000000 ) ) ;
#103 = CC_DESIGN_PERSON_AND_ORGANIZATION_ASSIGNMENT ( #168, #30, ( #237 ) ) ;
#104 = EDGE_LOOP ( 'NONE', ( #95 ) ) ;
#105 = PERSON_AND_ORGANIZATION ( #100, #182 ) ;
#106 = FACE_OUTER_BOUND ( 'NONE', #1, .T. ) ;
#107 = DATE_AND_TIME ( #188, #133 ) ;
#108 = DIRECTION ( 'NONE',  ( -4.275831445896958607E-31, -1.000000000000000000, -1.224646799147353207E-16 ) ) ;
#109 = EDGE_LOOP ( 'NONE', ( #70 ) ) ;
#110 = CIRCLE ( 'NONE', #63, 1.553999999999998716 ) ;
#111 =( NAMED_UNIT ( * ) PLANE_ANGLE_UNIT ( ) SI_UNIT ( $, .RADIAN. ) );
#112 = AXIS2_PLACEMENT_3D ( 'NONE', #209, #39, #124 ) ;
#113 = APPROVAL ( #59, 'UNSPECIFIED' ) ;
#114 = DIRECTION ( 'NONE',  ( -3.491481338843133355E-15, 1.224646799147353207E-16, -1.000000000000000000 ) ) ;
#115 = CARTESIAN_POINT ( 'NONE',  ( 8.728703347107825500E-16, -3.061616997868380553E-17, 0.2499999999999997780 ) ) ;
#116 = FACE_BOUND ( 'NONE', #187, .T. ) ;
#117 = DIRECTION ( 'NONE',  ( -3.491481338843133355E-15, 1.224646799147353207E-16, -1.000000000000000000 ) ) ;
#118 = EDGE_LOOP ( 'NONE', ( #52 ) ) ;
#119 = EDGE_LOOP ( 'NONE', ( #131 ) ) ;
#120 = CC_DESIGN_APPROVAL ( #90, ( #237 ) ) ;
#121 = AXIS2_PLACEMENT_3D ( 'NONE', #161, #173, #225 ) ;
#122 = AXIS2_PLACEMENT_3D ( 'NONE', #125, #232, #41 ) ;
#123 = APPLICATION_PROTOCOL_DEFINITION ( 'international standard', 'config_control_design', 1994, #217 ) ;
#124 = DIRECTION ( 'NONE',  ( 4.275831445896958607E-31, 1.000000000000000000, 1.224646799147353207E-16 ) ) ;
#125 = CARTESIAN_POINT ( 'NONE',  ( 0.0000000000000000000, 0.0000000000000000000, 0.0000000000000000000 ) ) ;
#126 = FACE_OUTER_BOUND ( 'NONE', #16, .T. ) ;
#127 = PERSON_AND_ORGANIZATION_ROLE ( 'creator' ) ;
#128 = EDGE_CURVE ( 'NONE', #224, #224, #17, .T. ) ;
#129 = AXIS2_PLACEMENT_3D ( 'NONE', #216, #44, #196 ) ;
#130 = LOCAL_TIME ( 14, 8, 17.00000000000000000, #23 ) ;
#131 = ORIENTED_EDGE ( 'NONE', *, *, #60, .T. ) ;
#132 = FACE_OUTER_BOUND ( 'NONE', #118, .T. ) ;
#133 = LOCAL_TIME ( 14, 8, 17.00000000000000000, #175 ) ;
#134 = DIRECTION ( 'NONE',  ( -4.275831445896958607E-31, -1.000000000000000000, -1.224646799147353207E-16 ) ) ;
#135 = EDGE_LOOP ( 'NONE', ( #184 ) ) ;
#136 = VERTEX_POINT ( 'NONE', #203 ) ;
#137 = ORIENTED_EDGE ( 'NONE', *, *, #185, .F. ) ;
#138 = CALENDAR_DATE ( 2021, 30, 11 ) ;
#139 = DATE_TIME_ROLE ( 'classification_date' ) ;
#140 = PERSON_AND_ORGANIZATION_ROLE ( 'design_owner' ) ;
#141 = COORDINATED_UNIVERSAL_TIME_OFFSET ( 1, 0, .AHEAD. ) ;
#142 = AXIS2_PLACEMENT_3D ( 'NONE', #46, #19, #202 ) ;
#143 = CC_DESIGN_DATE_AND_TIME_ASSIGNMENT ( #27, #86, ( #167 ) ) ;
#144 = APPROVAL_STATUS ( 'not_yet_approved' ) ;
#145 = CARTESIAN_POINT ( 'NONE',  ( 6.982962677686266711E-14, -2.449293598294706513E-15, 20.00000000000000000 ) ) ;
#146 = DIRECTION ( 'NONE',  ( 3.491481338843133355E-15, -1.224646799147353207E-16, 1.000000000000000000 ) ) ;
#147 = DIRECTION ( 'NONE',  ( 3.491481338843133355E-15, -1.224646799147353207E-16, 1.000000000000000000 ) ) ;
#148 = DIRECTION ( 'NONE',  ( -4.275831445896958607E-31, -1.000000000000000000, -1.224646799147353207E-16 ) ) ;
#149 = VERTEX_POINT ( 'NONE', #102 ) ;
#150 = CIRCLE ( 'NONE', #170, 1.249999999999996003 ) ;
#151 = ORIENTED_EDGE ( 'NONE', *, *, #67, .F. ) ;
#152 = CONICAL_SURFACE ( 'NONE', #6, 1.553999999999997605, 0.7853981633974433940 ) ;
#153 = ORIENTED_EDGE ( 'NONE', *, *, #67, .T. ) ;
#154 = VERTEX_POINT ( 'NONE', #172 ) ;
#155 = ADVANCED_BREP_SHAPE_REPRESENTATION ( '969402', ( #195, #200, #122 ), #220 ) ;
#156 = CC_DESIGN_PERSON_AND_ORGANIZATION_ASSIGNMENT ( #9, #234, ( #167 ) ) ;
#157 = ADVANCED_FACE ( 'NONE', ( #106 ), #233, .T. ) ;
#158 = VERTEX_POINT ( 'NONE', #92 ) ;
#159 = CARTESIAN_POINT ( 'NONE',  ( 8.728703347107831416E-16, 1.553999999999997605, 0.2500000000000000000 ) ) ;
#160 = APPROVAL_ROLE ( '' ) ;
#161 = CARTESIAN_POINT ( 'NONE',  ( 5.780730752849332515E-31, -2.027607403897875752E-32, 1.655667091368364065E-16 ) ) ;
#162 = DIRECTION ( 'NONE',  ( 4.275831445896958607E-31, 1.000000000000000000, 1.224646799147353207E-16 ) ) ;
#163 = ADVANCED_FACE ( 'NONE', ( #126, #190 ), #80, .T. ) ;
#164 = CALENDAR_DATE ( 2021, 30, 11 ) ;
#165 = SHAPE_DEFINITION_REPRESENTATION ( #186, #155 ) ;
#166 = DATE_AND_TIME ( #11, #28 ) ;
#167 = PRODUCT_DEFINITION ( 'UNKNOWN', '', #229, #215 ) ;
#168 = PERSON_AND_ORGANIZATION ( #100, #182 ) ;
#169 = DIRECTION ( 'NONE',  ( 3.491481338843133355E-15, -1.224646799147353207E-16, 1.000000000000000000 ) ) ;
#170 = AXIS2_PLACEMENT_3D ( 'NONE', #33, #114, #236 ) ;
#171 = EDGE_LOOP ( 'NONE', ( #8 ) ) ;
#172 = CARTESIAN_POINT ( 'NONE',  ( 6.982962677686266711E-14, 1.553999999999996273, 20.00000000000000000 ) ) ;
#173 = DIRECTION ( 'NONE',  ( -3.491481338843133355E-15, 1.224646799147353207E-16, -1.000000000000000000 ) ) ;
#174 =( NAMED_UNIT ( * ) SI_UNIT ( $, .STERADIAN. ) SOLID_ANGLE_UNIT ( ) );
#175 = COORDINATED_UNIVERSAL_TIME_OFFSET ( 1, 0, .AHEAD. ) ;
#176 = PERSON_AND_ORGANIZATION ( #100, #182 ) ;
#177 = CC_DESIGN_PERSON_AND_ORGANIZATION_ASSIGNMENT ( #235, #127, ( #229 ) ) ;
#178 = ADVANCED_FACE ( 'NONE', ( #85 ), #65, .F. ) ;
#179 = PERSON_AND_ORGANIZATION_ROLE ( 'design_supplier' ) ;
#180 = UNCERTAINTY_MEASURE_WITH_UNIT (LENGTH_MEASURE( 1.000000000000000082E-05 ), #29, 'distance_accuracy_value', 'NONE');
#181 = CLOSED_SHELL ( 'NONE', ( #189, #243, #231, #193, #25 ) ) ;
#182 = ORGANIZATION ( 'UNSPECIFIED', 'UNSPECIFIED', '' ) ;
#183 = VERTEX_POINT ( 'NONE', #14 ) ;
#184 = ORIENTED_EDGE ( 'NONE', *, *, #32, .T. ) ;
#185 = EDGE_CURVE ( 'NONE', #136, #136, #150, .T. ) ;
#186 = PRODUCT_DEFINITION_SHAPE ( 'NONE', 'NONE',  #167 ) ;
#187 = EDGE_LOOP ( 'NONE', ( #56 ) ) ;
#188 = CALENDAR_DATE ( 2021, 30, 11 ) ;
#189 = ADVANCED_FACE ( 'NONE', ( #238 ), #15, .F. ) ;
#190 = FACE_OUTER_BOUND ( 'NONE', #119, .T. ) ;
#191 = APPROVAL_DATE_TIME ( #166, #210 ) ;
#192 = CARTESIAN_POINT ( 'NONE',  ( 2.890365376424666257E-31, -1.013803701948937876E-32, 8.278335456841820326E-17 ) ) ;
#193 = ADVANCED_FACE ( 'NONE', ( #51, #94 ), #194, .T. ) ;
#194 = CONICAL_SURFACE ( 'NONE', #81, 1.000000000000005551, 0.7853981633974473908 ) ;
#195 = MANIFOLD_SOLID_BREP ( 'Corps-Déplacer/Copier1[1]', #181 ) ;
#196 = DIRECTION ( 'NONE',  ( 0.0000000000000000000, 1.000000000000000000, 0.0000000000000000000 ) ) ;
#197 = DIRECTION ( 'NONE',  ( -3.491481338843133355E-15, 1.224646799147353207E-16, -1.000000000000000000 ) ) ;
#198 = CARTESIAN_POINT ( 'NONE',  ( 7.166804339091940741E-14, -2.513776572809182418E-15, 20.52654344550095189 ) ) ;
#199 = EDGE_LOOP ( 'NONE', ( #207 ) ) ;
#200 = MANIFOLD_SOLID_BREP ( 'Corps-Déplacer/Copier1[2]', #87 ) ;
#201 = DIRECTION ( 'NONE',  ( -3.491481338843133355E-15, 1.224646799147353207E-16, -1.000000000000000000 ) ) ;
#202 = DIRECTION ( 'NONE',  ( 4.275831445896957731E-31, 1.000000000000000000, 1.224646799147353454E-16 ) ) ;
#203 = CARTESIAN_POINT ( 'NONE',  ( 7.166804339091940741E-14, 1.249999999999993339, 20.52654344550095189 ) ) ;
#204 = CIRCLE ( 'NONE', #5, 1.553999999999997605 ) ;
#205 = APPROVAL_DATE_TIME ( #82, #90 ) ;
#206 = LOCAL_TIME ( 14, 8, 17.00000000000000000, #79 ) ;
#207 = ORIENTED_EDGE ( 'NONE', *, *, #88, .T. ) ;
#208 = MECHANICAL_CONTEXT ( 'NONE', #213, 'mechanical' ) ;
#209 = CARTESIAN_POINT ( 'NONE',  ( 0.0000000000000000000, 0.0000000000000000000, 0.0000000000000000000 ) ) ;
#210 = APPROVAL ( #21, 'UNSPECIFIED' ) ;
#211 = APPROVAL_ROLE ( '' ) ;
#212 = CIRCLE ( 'NONE', #221, 1.553999999999998716 ) ;
#213 = APPLICATION_CONTEXT ( 'configuration controlled 3d designs of mechanical parts and assemblies' ) ;
#214 = APPROVAL_ROLE ( '' ) ;
#215 = DESIGN_CONTEXT ( 'detailed design', #217, 'design' ) ;
#216 = CARTESIAN_POINT ( 'NONE',  ( 1.946500846405046877E-13, -6.827405905246494765E-15, 55.75000000000000000 ) ) ;
#217 = APPLICATION_CONTEXT ( 'configuration controlled 3d designs of mechanical parts and assemblies' ) ;
#218 = AXIS2_PLACEMENT_3D ( 'NONE', #2, #55, #162 ) ;
#219 = PRODUCT ( '969402', '969402', '', ( #208 ) ) ;
#220 =( GEOMETRIC_REPRESENTATION_CONTEXT ( 3 ) GLOBAL_UNCERTAINTY_ASSIGNED_CONTEXT ( ( #180 ) ) GLOBAL_UNIT_ASSIGNED_CONTEXT ( ( #29, #111, #174 ) ) REPRESENTATION_CONTEXT ( 'NONE', 'WORKASPACE' ) );
#221 = AXIS2_PLACEMENT_3D ( 'NONE', #145, #62, #40 ) ;
#222 = CC_DESIGN_APPROVAL ( #210, ( #167 ) ) ;
#223 = ADVANCED_FACE ( 'NONE', ( #116, #91 ), #152, .T. ) ;
#224 = VERTEX_POINT ( 'NONE', #53 ) ;
#225 = DIRECTION ( 'NONE',  ( 4.275831445896958607E-31, 1.000000000000000000, 1.224646799147353207E-16 ) ) ;
#226 = EDGE_LOOP ( 'NONE', ( #153 ) ) ;
#227 = PERSON_AND_ORGANIZATION ( #100, #182 ) ;
#228 = CARTESIAN_POINT ( 'NONE',  ( 1.955229549752154679E-13, -6.858022075225178552E-15, 56.00000000000000000 ) ) ;
#229 = PRODUCT_DEFINITION_FORMATION_WITH_SPECIFIED_SOURCE ( 'ANY', '', #219, .NOT_KNOWN. ) ;
#230 = CALENDAR_DATE ( 2021, 30, 11 ) ;
#231 = ADVANCED_FACE ( 'NONE', ( #7, #54 ), #73, .T. ) ;
#232 = DIRECTION ( 'NONE',  ( 0.0000000000000000000, 0.0000000000000000000, 1.000000000000000000 ) ) ;
#233 = PLANE ( 'NONE',  #45 ) ;
#234 = PERSON_AND_ORGANIZATION_ROLE ( 'creator' ) ;
#235 = PERSON_AND_ORGANIZATION ( #100, #182 ) ;
#236 = DIRECTION ( 'NONE',  ( 0.0000000000000000000, 1.000000000000000000, 0.0000000000000000000 ) ) ;
#237 = SECURITY_CLASSIFICATION ( '', '', #10 ) ;
#238 = FACE_OUTER_BOUND ( 'NONE', #199, .T. ) ;
#239 = EDGE_LOOP ( 'NONE', ( #151 ) ) ;
#240 = AXIS2_PLACEMENT_3D ( 'NONE', #192, #146, #148 ) ;
#241 = CONICAL_SURFACE ( 'NONE', #71, 1.249999999999996003, 0.5235987755982911551 ) ;
#242 = PRODUCT_RELATED_PRODUCT_CATEGORY ( 'detail', '', ( #219 ) ) ;
#243 = ADVANCED_FACE ( 'NONE', ( #132, #3 ), #241, .T. ) ;
ENDSEC;
END-ISO-10303-21;
