ISO-10303-21;
HEADER;
FILE_DESCRIPTION (( 'STEP AP203' ),
    '1' );
FILE_NAME ('969401.step',
    '2021-11-30T13:08:16',
    ( '' ),
    ( '' ),
    'SwSTEP 2.0',
    'SolidWorks 2019',
    '' );
FILE_SCHEMA (( 'CONFIG_CONTROL_DESIGN' ));
ENDSEC;

DATA;
#1 = CARTESIAN_POINT ( 'NONE',  ( 6.982962677686266711E-14, 1.543999999999996708, 20.00000000000000000 ) ) ;
#2 = LOCAL_TIME ( 14, 8, 16.00000000000000000, #102 ) ;
#3 = ADVANCED_BREP_SHAPE_REPRESENTATION ( '969401', ( #144, #138, #100 ), #223 ) ;
#4 = ORIENTED_EDGE ( 'NONE', *, *, #91, .T. ) ;
#5 =( NAMED_UNIT ( * ) SI_UNIT ( $, .STERADIAN. ) SOLID_ANGLE_UNIT ( ) );
#6 = ORIENTED_EDGE ( 'NONE', *, *, #91, .F. ) ;
#7 = CONICAL_SURFACE ( 'NONE', #187, 1.249999999999996003, 0.5235987755982929315 ) ;
#8 = DIRECTION ( 'NONE',  ( 4.275831445896958607E-31, 1.000000000000000000, 1.224646799147353207E-16 ) ) ;
#9 = DIRECTION ( 'NONE',  ( -3.491481338843133355E-15, 1.224646799147353207E-16, -1.000000000000000000 ) ) ;
#10 = PRODUCT_DEFINITION_SHAPE ( 'NONE', 'NONE',  #170 ) ;
#11 = DIRECTION ( 'NONE',  ( -4.275831445896958607E-31, -1.000000000000000000, -1.224646799147353207E-16 ) ) ;
#12 = PRODUCT_DEFINITION_FORMATION_WITH_SPECIFIED_SOURCE ( 'ANY', '', #169, .NOT_KNOWN. ) ;
#13 = DIRECTION ( 'NONE',  ( 0.0000000000000000000, 1.000000000000000000, 0.0000000000000000000 ) ) ;
#14 = PERSON_AND_ORGANIZATION ( #70, #133 ) ;
#15 = CONICAL_SURFACE ( 'NONE', #166, 1.543999999999997597, 0.7853981633974432830 ) ;
#16 = VERTEX_POINT ( 'NONE', #101 ) ;
#17 = CARTESIAN_POINT ( 'NONE',  ( 6.982962677686266711E-14, 1.157814552214949716E-32, 20.00000000000000000 ) ) ;
#18 = ADVANCED_FACE ( 'NONE', ( #231, #211 ), #7, .T. ) ;
#19 = CC_DESIGN_PERSON_AND_ORGANIZATION_ASSIGNMENT ( #67, #157, ( #12 ) ) ;
#20 = CIRCLE ( 'NONE', #208, 1.543999999999999151 ) ;
#21 = AXIS2_PLACEMENT_3D ( 'NONE', #159, #103, #224 ) ;
#22 = DATE_TIME_ROLE ( 'creation_date' ) ;
#23 = CARTESIAN_POINT ( 'NONE',  ( 5.823489067308301943E-31, -2.042605001724494164E-32, 1.667913559359837570E-16 ) ) ;
#24 = DATE_AND_TIME ( #179, #2 ) ;
#25 = ADVANCED_FACE ( 'NONE', ( #184 ), #212, .F. ) ;
#26 = EDGE_LOOP ( 'NONE', ( #80 ) ) ;
#27 = EDGE_LOOP ( 'NONE', ( #197 ) ) ;
#28 = EDGE_LOOP ( 'NONE', ( #111 ) ) ;
#29 = APPROVAL ( #242, 'UNSPECIFIED' ) ;
#30 = DIRECTION ( 'NONE',  ( 3.491481338843133355E-15, -1.224646799147353207E-16, 1.000000000000000000 ) ) ;
#31 = LOCAL_TIME ( 14, 8, 16.00000000000000000, #222 ) ;
#32 = ADVANCED_FACE ( 'NONE', ( #215 ), #196, .F. ) ;
#33 = PERSON_AND_ORGANIZATION_ROLE ( 'classification_officer' ) ;
#34 = APPROVAL_ROLE ( '' ) ;
#35 = CARTESIAN_POINT ( 'NONE',  ( 1.955229549752154679E-13, -6.858022075225178552E-15, 56.00000000000000000 ) ) ;
#36 = CC_DESIGN_PERSON_AND_ORGANIZATION_ASSIGNMENT ( #225, #87, ( #170 ) ) ;
#37 = FACE_OUTER_BOUND ( 'NONE', #27, .T. ) ;
#38 = AXIS2_PLACEMENT_3D ( 'NONE', #65, #228, #127 ) ;
#39 = CC_DESIGN_APPROVAL ( #181, ( #170 ) ) ;
#40 = CLOSED_SHELL ( 'NONE', ( #198, #18, #229, #204, #25 ) ) ;
#41 = DIRECTION ( 'NONE',  ( -3.491481338843133355E-15, 1.224646799147353207E-16, -1.000000000000000000 ) ) ;
#42 = VERTEX_POINT ( 'NONE', #149 ) ;
#43 = DIRECTION ( 'NONE',  ( -3.491481338843133355E-15, 1.224646799147353207E-16, -1.000000000000000000 ) ) ;
#44 = APPROVAL_ROLE ( '' ) ;
#45 = CARTESIAN_POINT ( 'NONE',  ( 1.946500846405046877E-13, 1.249999999999998446, 55.75000000000000000 ) ) ;
#46 = MECHANICAL_CONTEXT ( 'NONE', #180, 'mechanical' ) ;
#47 = DIRECTION ( 'NONE',  ( 4.275831445896958607E-31, 1.000000000000000000, 1.224646799147353207E-16 ) ) ;
#48 = DATE_AND_TIME ( #164, #171 ) ;
#49 = PERSON_AND_ORGANIZATION_ROLE ( 'design_owner' ) ;
#50 = CIRCLE ( 'NONE', #193, 1.543999999999997597 ) ;
#51 = DIRECTION ( 'NONE',  ( -3.491481338843133355E-15, 1.224646799147353207E-16, -1.000000000000000000 ) ) ;
#52 = APPLICATION_PROTOCOL_DEFINITION ( 'international standard', 'config_control_design', 1994, #97 ) ;
#53 = CC_DESIGN_APPROVAL ( #219, ( #12 ) ) ;
#54 = FACE_OUTER_BOUND ( 'NONE', #129, .T. ) ;
#55 = DATE_AND_TIME ( #116, #162 ) ;
#56 = DIRECTION ( 'NONE',  ( -3.491481338843133355E-15, 1.224646799147353207E-16, -1.000000000000000000 ) ) ;
#57 = CC_DESIGN_DATE_AND_TIME_ASSIGNMENT ( #83, #22, ( #170 ) ) ;
#58 = ORIENTED_EDGE ( 'NONE', *, *, #61, .F. ) ;
#59 = CARTESIAN_POINT ( 'NONE',  ( 1.955229549752154679E-13, 0.9999999999999985567, 56.00000000000000000 ) ) ;
#60 = ORIENTED_EDGE ( 'NONE', *, *, #131, .F. ) ;
#61 = EDGE_CURVE ( 'NONE', #16, #16, #227, .T. ) ;
#62 = CARTESIAN_POINT ( 'NONE',  ( 6.982962677686266711E-14, 1.543999999999996708, 20.00000000000000000 ) ) ;
#63 = EDGE_LOOP ( 'NONE', ( #6 ) ) ;
#64 = AXIS2_PLACEMENT_3D ( 'NONE', #233, #124, #47 ) ;
#65 = CARTESIAN_POINT ( 'NONE',  ( 2.911744533654150972E-31, -1.021302500862247082E-32, 8.339567796799187850E-17 ) ) ;
#66 = CARTESIAN_POINT ( 'NONE',  ( 8.728703347107827472E-16, -3.061616997868381169E-17, 0.2499999999999998335 ) ) ;
#67 = PERSON_AND_ORGANIZATION ( #70, #133 ) ;
#68 = DIRECTION ( 'NONE',  ( -3.491481338843133355E-15, 1.224646799147353207E-16, -1.000000000000000000 ) ) ;
#69 = EDGE_CURVE ( 'NONE', #177, #177, #183, .T. ) ;
#70 = PERSON ( 'UNSPECIFIED', 'UNSPECIFIED', 'UNSPECIFIED', ('UNSPECIFIED'), ('UNSPECIFIED'), ('UNSPECIFIED') ) ;
#71 = AXIS2_PLACEMENT_3D ( 'NONE', #186, #9, #134 ) ;
#72 = FACE_OUTER_BOUND ( 'NONE', #63, .T. ) ;
#73 = UNCERTAINTY_MEASURE_WITH_UNIT (LENGTH_MEASURE( 1.000000000000000082E-05 ), #126, 'distance_accuracy_value', 'NONE');
#74 = CIRCLE ( 'NONE', #147, 1.000000000000005551 ) ;
#75 = AXIS2_PLACEMENT_3D ( 'NONE', #92, #238, #115 ) ;
#76 = FACE_OUTER_BOUND ( 'NONE', #84, .T. ) ;
#77 = SHAPE_DEFINITION_REPRESENTATION ( #10, #3 ) ;
#78 = PERSON_AND_ORGANIZATION ( #70, #133 ) ;
#79 = PRODUCT_RELATED_PRODUCT_CATEGORY ( 'detail', '', ( #169 ) ) ;
#80 = ORIENTED_EDGE ( 'NONE', *, *, #85, .F. ) ;
#81 = COORDINATED_UNIVERSAL_TIME_OFFSET ( 1, 0, .AHEAD. ) ;
#82 = CARTESIAN_POINT ( 'NONE',  ( 7.160756916019385732E-14, -2.511655422331732329E-15, 20.50922293742526392 ) ) ;
#83 = DATE_AND_TIME ( #125, #106 ) ;
#84 = EDGE_LOOP ( 'NONE', ( #199 ) ) ;
#85 = EDGE_CURVE ( 'NONE', #230, #230, #74, .T. ) ;
#86 = EDGE_LOOP ( 'NONE', ( #4 ) ) ;
#87 = PERSON_AND_ORGANIZATION_ROLE ( 'creator' ) ;
#88 = CARTESIAN_POINT ( 'NONE',  ( 7.160756916019385732E-14, 1.249999999999993339, 20.50922293742526392 ) ) ;
#89 = ORIENTED_EDGE ( 'NONE', *, *, #69, .T. ) ;
#90 = APPROVAL_PERSON_ORGANIZATION ( #213, #219, #44 ) ;
#91 = EDGE_CURVE ( 'NONE', #214, #214, #20, .T. ) ;
#92 = CARTESIAN_POINT ( 'NONE',  ( 1.955229549752154679E-13, -6.858022075225178552E-15, 56.00000000000000000 ) ) ;
#93 = DIRECTION ( 'NONE',  ( 3.742091860856033898E-31, 1.000000000000000000, 1.053305219383587514E-16 ) ) ;
#94 = CARTESIAN_POINT ( 'NONE',  ( 8.728703347107827472E-16, -3.061616997868381169E-17, 0.2499999999999998335 ) ) ;
#95 = AXIS2_PLACEMENT_3D ( 'NONE', #17, #98, #178 ) ;
#96 = DIRECTION ( 'NONE',  ( 0.0000000000000000000, 1.000000000000000000, 0.0000000000000000000 ) ) ;
#97 = APPLICATION_CONTEXT ( 'configuration controlled 3d designs of mechanical parts and assemblies' ) ;
#98 = DIRECTION ( 'NONE',  ( 3.491481338843133355E-15, -1.224646799147353207E-16, 1.000000000000000000 ) ) ;
#99 = AXIS2_PLACEMENT_3D ( 'NONE', #190, #188, #96 ) ;
#100 = AXIS2_PLACEMENT_3D ( 'NONE', #189, #130, #143 ) ;
#101 = CARTESIAN_POINT ( 'NONE',  ( 1.135641495829896858E-30, 1.294000000000000483, 3.252606517456513302E-16 ) ) ;
#102 = COORDINATED_UNIVERSAL_TIME_OFFSET ( 1, 0, .AHEAD. ) ;
#103 = DIRECTION ( 'NONE',  ( -3.491481338843133355E-15, 1.224646799147353207E-16, -1.000000000000000000 ) ) ;
#104 = APPROVAL_ROLE ( '' ) ;
#105 = CYLINDRICAL_SURFACE ( 'NONE', #216, 1.543999999999998485 ) ;
#106 = LOCAL_TIME ( 14, 8, 16.00000000000000000, #110 ) ;
#107 = EDGE_LOOP ( 'NONE', ( #58 ) ) ;
#108 = APPROVAL_STATUS ( 'not_yet_approved' ) ;
#109 = VERTEX_POINT ( 'NONE', #88 ) ;
#110 = COORDINATED_UNIVERSAL_TIME_OFFSET ( 1, 0, .AHEAD. ) ;
#111 = ORIENTED_EDGE ( 'NONE', *, *, #165, .T. ) ;
#112 = DIRECTION ( 'NONE',  ( 0.0000000000000000000, 1.000000000000000000, 0.0000000000000000000 ) ) ;
#113 = FACE_OUTER_BOUND ( 'NONE', #234, .T. ) ;
#114 = DIRECTION ( 'NONE',  ( 3.491481338843133355E-15, -1.224646799147353207E-16, 1.000000000000000000 ) ) ;
#115 = DIRECTION ( 'NONE',  ( 0.0000000000000000000, 1.000000000000000000, 0.0000000000000000000 ) ) ;
#116 = CALENDAR_DATE ( 2021, 30, 11 ) ;
#117 = DIRECTION ( 'NONE',  ( -3.491481338843133355E-15, 1.224646799147353207E-16, -1.000000000000000000 ) ) ;
#118 = CONICAL_SURFACE ( 'NONE', #75, 1.000000000000005551, 0.7853981633974473908 ) ;
#119 = APPROVAL_DATE_TIME ( #140, #29 ) ;
#120 = CC_DESIGN_PERSON_AND_ORGANIZATION_ASSIGNMENT ( #200, #154, ( #12 ) ) ;
#121 = CC_DESIGN_APPROVAL ( #29, ( #220 ) ) ;
#122 = VERTEX_POINT ( 'NONE', #45 ) ;
#123 = EDGE_LOOP ( 'NONE', ( #182 ) ) ;
#124 = DIRECTION ( 'NONE',  ( -3.491481338843133355E-15, 1.224646799147353207E-16, -1.000000000000000000 ) ) ;
#125 = CALENDAR_DATE ( 2021, 30, 11 ) ;
#126 =( LENGTH_UNIT ( ) NAMED_UNIT ( * ) SI_UNIT ( .MILLI., .METRE. ) );
#127 = DIRECTION ( 'NONE',  ( -4.275831445896958607E-31, -1.000000000000000000, -1.224646799147353207E-16 ) ) ;
#128 = APPROVAL_DATE_TIME ( #48, #219 ) ;
#129 = EDGE_LOOP ( 'NONE', ( #145 ) ) ;
#130 = DIRECTION ( 'NONE',  ( 0.0000000000000000000, 0.0000000000000000000, 1.000000000000000000 ) ) ;
#131 = EDGE_CURVE ( 'NONE', #122, #122, #146, .T. ) ;
#132 = CARTESIAN_POINT ( 'NONE',  ( 6.982962677686266711E-14, -2.449293598294706513E-15, 20.00000000000000000 ) ) ;
#133 = ORGANIZATION ( 'UNSPECIFIED', 'UNSPECIFIED', '' ) ;
#134 = DIRECTION ( 'NONE',  ( 0.0000000000000000000, 1.000000000000000000, 0.0000000000000000000 ) ) ;
#135 = DIRECTION ( 'NONE',  ( 0.0000000000000000000, 1.000000000000000000, 0.0000000000000000000 ) ) ;
#136 = AXIS2_PLACEMENT_3D ( 'NONE', #23, #43, #8 ) ;
#137 = CALENDAR_DATE ( 2021, 30, 11 ) ;
#138 = MANIFOLD_SOLID_BREP ( 'Corps-Déplacer/Copier1[2]', #150 ) ;
#139 = CIRCLE ( 'NONE', #99, 1.249999999999996003 ) ;
#140 = DATE_AND_TIME ( #137, #31 ) ;
#141 = CC_DESIGN_PERSON_AND_ORGANIZATION_ASSIGNMENT ( #202, #33, ( #220 ) ) ;
#142 = FACE_OUTER_BOUND ( 'NONE', #86, .T. ) ;
#143 = DIRECTION ( 'NONE',  ( 1.000000000000000000, 0.0000000000000000000, 0.0000000000000000000 ) ) ;
#144 = MANIFOLD_SOLID_BREP ( 'Corps-Déplacer/Copier1[1]', #40 ) ;
#145 = ORIENTED_EDGE ( 'NONE', *, *, #131, .T. ) ;
#146 = CIRCLE ( 'NONE', #175, 1.250000000000005329 ) ;
#147 = AXIS2_PLACEMENT_3D ( 'NONE', #35, #152, #237 ) ;
#148 = EDGE_LOOP ( 'NONE', ( #168 ) ) ;
#149 = CARTESIAN_POINT ( 'NONE',  ( 8.728703347107833388E-16, 1.543999999999997597, 0.2500000000000000000 ) ) ;
#150 = CLOSED_SHELL ( 'NONE', ( #32, #161, #243, #221 ) ) ;
#151 = EDGE_LOOP ( 'NONE', ( #163 ) ) ;
#152 = DIRECTION ( 'NONE',  ( -3.491481338843133355E-15, 1.224646799147353207E-16, -1.000000000000000000 ) ) ;
#153 = PERSON_AND_ORGANIZATION ( #70, #133 ) ;
#154 = PERSON_AND_ORGANIZATION_ROLE ( 'creator' ) ;
#155 = CC_DESIGN_SECURITY_CLASSIFICATION ( #220, ( #12 ) ) ;
#156 = DIRECTION ( 'NONE',  ( -3.742091860856033898E-31, -1.000000000000000000, -1.053305219383587514E-16 ) ) ;
#157 = PERSON_AND_ORGANIZATION_ROLE ( 'design_supplier' ) ;
#158 = FACE_BOUND ( 'NONE', #107, .T. ) ;
#159 = CARTESIAN_POINT ( 'NONE',  ( 0.0000000000000000000, 0.0000000000000000000, 0.0000000000000000000 ) ) ;
#160 = CARTESIAN_POINT ( 'NONE',  ( 0.0000000000000000000, 0.0000000000000000000, 0.0000000000000000000 ) ) ;
#161 = ADVANCED_FACE ( 'NONE', ( #158, #172 ), #15, .T. ) ;
#162 = LOCAL_TIME ( 14, 8, 16.00000000000000000, #241 ) ;
#163 = ORIENTED_EDGE ( 'NONE', *, *, #195, .T. ) ;
#164 = CALENDAR_DATE ( 2021, 30, 11 ) ;
#165 = EDGE_CURVE ( 'NONE', #109, #109, #139, .T. ) ;
#166 = AXIS2_PLACEMENT_3D ( 'NONE', #66, #114, #156 ) ;
#167 = ORIENTED_EDGE ( 'NONE', *, *, #85, .T. ) ;
#168 = ORIENTED_EDGE ( 'NONE', *, *, #69, .F. ) ;
#169 = PRODUCT ( '969401', '969401', '', ( #46 ) ) ;
#170 = PRODUCT_DEFINITION ( 'UNKNOWN', '', #12, #218 ) ;
#171 = LOCAL_TIME ( 14, 8, 16.00000000000000000, #81 ) ;
#172 = FACE_OUTER_BOUND ( 'NONE', #151, .T. ) ;
#173 = CARTESIAN_POINT ( 'NONE',  ( 6.982962677686266711E-14, 1.157814552214949716E-32, 20.00000000000000000 ) ) ;
#174 = DATE_TIME_ROLE ( 'classification_date' ) ;
#175 = AXIS2_PLACEMENT_3D ( 'NONE', #205, #117, #135 ) ;
#176 = APPROVAL_PERSON_ORGANIZATION ( #78, #181, #34 ) ;
#177 = VERTEX_POINT ( 'NONE', #1 ) ;
#178 = DIRECTION ( 'NONE',  ( -4.275831445896958607E-31, -1.000000000000000000, -1.224646799147353207E-16 ) ) ;
#179 = CALENDAR_DATE ( 2021, 30, 11 ) ;
#180 = APPLICATION_CONTEXT ( 'configuration controlled 3d designs of mechanical parts and assemblies' ) ;
#181 = APPROVAL ( #207, 'UNSPECIFIED' ) ;
#182 = ORIENTED_EDGE ( 'NONE', *, *, #61, .T. ) ;
#183 = CIRCLE ( 'NONE', #71, 1.543999999999999151 ) ;
#184 = FACE_OUTER_BOUND ( 'NONE', #26, .T. ) ;
#185 = CC_DESIGN_PERSON_AND_ORGANIZATION_ASSIGNMENT ( #153, #49, ( #169 ) ) ;
#186 = CARTESIAN_POINT ( 'NONE',  ( 6.982962677686266711E-14, -2.449293598294706513E-15, 20.00000000000000000 ) ) ;
#187 = AXIS2_PLACEMENT_3D ( 'NONE', #82, #41, #112 ) ;
#188 = DIRECTION ( 'NONE',  ( -3.491481338843133355E-15, 1.224646799147353207E-16, -1.000000000000000000 ) ) ;
#189 = CARTESIAN_POINT ( 'NONE',  ( 0.0000000000000000000, 0.0000000000000000000, 0.0000000000000000000 ) ) ;
#190 = CARTESIAN_POINT ( 'NONE',  ( 7.160756916019385732E-14, -2.511655422331732329E-15, 20.50922293742526392 ) ) ;
#191 = PLANE ( 'NONE',  #95 ) ;
#192 = CYLINDRICAL_SURFACE ( 'NONE', #21, 1.250000000000000666 ) ;
#193 = AXIS2_PLACEMENT_3D ( 'NONE', #94, #68, #93 ) ;
#194 = DIRECTION ( 'NONE',  ( 4.275831445896958607E-31, 1.000000000000000000, 1.224646799147353207E-16 ) ) ;
#195 = EDGE_CURVE ( 'NONE', #42, #42, #50, .T. ) ;
#196 = PLANE ( 'NONE',  #38 ) ;
#197 = ORIENTED_EDGE ( 'NONE', *, *, #195, .F. ) ;
#198 = ADVANCED_FACE ( 'NONE', ( #206 ), #239, .F. ) ;
#199 = ORIENTED_EDGE ( 'NONE', *, *, #165, .F. ) ;
#200 = PERSON_AND_ORGANIZATION ( #70, #133 ) ;
#201 =( NAMED_UNIT ( * ) PLANE_ANGLE_UNIT ( ) SI_UNIT ( $, .RADIAN. ) );
#202 = PERSON_AND_ORGANIZATION ( #70, #133 ) ;
#203 = AXIS2_PLACEMENT_3D ( 'NONE', #173, #30, #11 ) ;
#204 = ADVANCED_FACE ( 'NONE', ( #113, #240 ), #118, .T. ) ;
#205 = CARTESIAN_POINT ( 'NONE',  ( 1.946500846405046877E-13, -6.827405905246494765E-15, 55.75000000000000000 ) ) ;
#206 = FACE_OUTER_BOUND ( 'NONE', #226, .T. ) ;
#207 = APPROVAL_STATUS ( 'not_yet_approved' ) ;
#208 = AXIS2_PLACEMENT_3D ( 'NONE', #132, #51, #13 ) ;
#209 = APPLICATION_PROTOCOL_DEFINITION ( 'international standard', 'config_control_design', 1994, #180 ) ;
#210 = APPROVAL_PERSON_ORGANIZATION ( #14, #29, #104 ) ;
#211 = FACE_BOUND ( 'NONE', #28, .T. ) ;
#212 = PLANE ( 'NONE',  #64 ) ;
#213 = PERSON_AND_ORGANIZATION ( #70, #133 ) ;
#214 = VERTEX_POINT ( 'NONE', #62 ) ;
#215 = FACE_OUTER_BOUND ( 'NONE', #123, .T. ) ;
#216 = AXIS2_PLACEMENT_3D ( 'NONE', #160, #56, #194 ) ;
#217 = EDGE_LOOP ( 'NONE', ( #167 ) ) ;
#218 = DESIGN_CONTEXT ( 'detailed design', #97, 'design' ) ;
#219 = APPROVAL ( #108, 'UNSPECIFIED' ) ;
#220 = SECURITY_CLASSIFICATION ( '', '', #235 ) ;
#221 = ADVANCED_FACE ( 'NONE', ( #72 ), #191, .T. ) ;
#222 = COORDINATED_UNIVERSAL_TIME_OFFSET ( 1, 0, .AHEAD. ) ;
#223 =( GEOMETRIC_REPRESENTATION_CONTEXT ( 3 ) GLOBAL_UNCERTAINTY_ASSIGNED_CONTEXT ( ( #73 ) ) GLOBAL_UNIT_ASSIGNED_CONTEXT ( ( #126, #201, #5 ) ) REPRESENTATION_CONTEXT ( 'NONE', 'WORKASPACE' ) );
#224 = DIRECTION ( 'NONE',  ( 4.275831445896957731E-31, 1.000000000000000000, 1.224646799147353454E-16 ) ) ;
#225 = PERSON_AND_ORGANIZATION ( #70, #133 ) ;
#226 = EDGE_LOOP ( 'NONE', ( #89 ) ) ;
#227 = CIRCLE ( 'NONE', #136, 1.294000000000000483 ) ;
#228 = DIRECTION ( 'NONE',  ( 3.491481338843133355E-15, -1.224646799147353207E-16, 1.000000000000000000 ) ) ;
#229 = ADVANCED_FACE ( 'NONE', ( #76, #54 ), #192, .T. ) ;
#230 = VERTEX_POINT ( 'NONE', #59 ) ;
#231 = FACE_OUTER_BOUND ( 'NONE', #148, .T. ) ;
#232 = APPROVAL_DATE_TIME ( #24, #181 ) ;
#233 = CARTESIAN_POINT ( 'NONE',  ( 1.955229549752154679E-13, 7.498798913309223722E-33, 56.00000000000000000 ) ) ;
#234 = EDGE_LOOP ( 'NONE', ( #60 ) ) ;
#235 = SECURITY_CLASSIFICATION_LEVEL ( 'unclassified' ) ;
#236 = CC_DESIGN_DATE_AND_TIME_ASSIGNMENT ( #55, #174, ( #220 ) ) ;
#237 = DIRECTION ( 'NONE',  ( 0.0000000000000000000, 1.000000000000000000, 0.0000000000000000000 ) ) ;
#238 = DIRECTION ( 'NONE',  ( -3.491481338843133355E-15, 1.224646799147353207E-16, -1.000000000000000000 ) ) ;
#239 = PLANE ( 'NONE',  #203 ) ;
#240 = FACE_BOUND ( 'NONE', #217, .T. ) ;
#241 = COORDINATED_UNIVERSAL_TIME_OFFSET ( 1, 0, .AHEAD. ) ;
#242 = APPROVAL_STATUS ( 'not_yet_approved' ) ;
#243 = ADVANCED_FACE ( 'NONE', ( #37, #142 ), #105, .T. ) ;
ENDSEC;
END-ISO-10303-21;
