ISO-10303-21;
HEADER;
FILE_DESCRIPTION (( 'STEP AP203' ),
    '1' );
FILE_NAME ('969400.step',
    '2021-11-30T13:08:16',
    ( '' ),
    ( '' ),
    'SwSTEP 2.0',
    'SolidWorks 2019',
    '' );
FILE_SCHEMA (( 'CONFIG_CONTROL_DESIGN' ));
ENDSEC;

DATA;
#1 = DIRECTION ( 'NONE',  ( 3.491481338843133355E-15, -1.224646799147353207E-16, 1.000000000000000000 ) ) ;
#2 = DIRECTION ( 'NONE',  ( -3.491481338843133355E-15, 1.224646799147353207E-16, -1.000000000000000000 ) ) ;
#3 = DIRECTION ( 'NONE',  ( -3.491481338843133355E-15, 1.224646799147353207E-16, -1.000000000000000000 ) ) ;
#4 = EDGE_LOOP ( 'NONE', ( #151 ) ) ;
#5 = DATE_AND_TIME ( #172, #91 ) ;
#6 = FACE_OUTER_BOUND ( 'NONE', #61, .T. ) ;
#7 = DIRECTION ( 'NONE',  ( -3.491481338843133355E-15, 1.224646799147353207E-16, -1.000000000000000000 ) ) ;
#8 = AXIS2_PLACEMENT_3D ( 'NONE', #139, #195, #27 ) ;
#9 = MANIFOLD_SOLID_BREP ( 'Corps-Déplacer/Copier1[2]', #47 ) ;
#10 = AXIS2_PLACEMENT_3D ( 'NONE', #170, #2, #136 ) ;
#11 = PERSON_AND_ORGANIZATION_ROLE ( 'creator' ) ;
#12 = COORDINATED_UNIVERSAL_TIME_OFFSET ( 1, 0, .AHEAD. ) ;
#13 = MANIFOLD_SOLID_BREP ( 'Corps-Déplacer/Copier1[1]', #163 ) ;
#14 = UNCERTAINTY_MEASURE_WITH_UNIT (LENGTH_MEASURE( 1.000000000000000082E-05 ), #95, 'distance_accuracy_value', 'NONE');
#15 = CARTESIAN_POINT ( 'NONE',  ( 1.955229549752154679E-13, 0.9999999999999985567, 56.00000000000000000 ) ) ;
#16 = CIRCLE ( 'NONE', #158, 1.528999999999997694 ) ;
#17 = FACE_OUTER_BOUND ( 'NONE', #116, .T. ) ;
#18 = ORIENTED_EDGE ( 'NONE', *, *, #194, .T. ) ;
#19 = DIRECTION ( 'NONE',  ( -3.491481338843133355E-15, 1.224646799147353207E-16, -1.000000000000000000 ) ) ;
#20 = ORIENTED_EDGE ( 'NONE', *, *, #194, .F. ) ;
#21 = DIRECTION ( 'NONE',  ( -3.491481338843133355E-15, 1.224646799147353207E-16, -1.000000000000000000 ) ) ;
#22 = PRODUCT_DEFINITION ( 'UNKNOWN', '', #242, #76 ) ;
#23 = APPROVAL ( #51, 'UNSPECIFIED' ) ;
#24 = DIRECTION ( 'NONE',  ( -3.491481338843133355E-15, 1.224646799147353207E-16, -1.000000000000000000 ) ) ;
#25 = VERTEX_POINT ( 'NONE', #209 ) ;
#26 = EDGE_CURVE ( 'NONE', #174, #174, #238, .T. ) ;
#27 = DIRECTION ( 'NONE',  ( -3.778803030190788907E-31, -1.000000000000000000, -1.063638494917108629E-16 ) ) ;
#28 = CALENDAR_DATE ( 2021, 30, 11 ) ;
#29 = DIRECTION ( 'NONE',  ( 0.0000000000000000000, 1.000000000000000000, 0.0000000000000000000 ) ) ;
#30 = CC_DESIGN_PERSON_AND_ORGANIZATION_ASSIGNMENT ( #48, #216, ( #22 ) ) ;
#31 = LOCAL_TIME ( 14, 8, 15.00000000000000000, #12 ) ;
#32 = PERSON_AND_ORGANIZATION ( #177, #175 ) ;
#33 = ADVANCED_FACE ( 'NONE', ( #66, #6 ), #118, .T. ) ;
#34 = CALENDAR_DATE ( 2021, 30, 11 ) ;
#35 = EDGE_LOOP ( 'NONE', ( #185 ) ) ;
#36 = AXIS2_PLACEMENT_3D ( 'NONE', #114, #3, #97 ) ;
#37 = FACE_BOUND ( 'NONE', #4, .T. ) ;
#38 = PLANE ( 'NONE',  #138 ) ;
#39 = EDGE_LOOP ( 'NONE', ( #75 ) ) ;
#40 = PRODUCT ( '969400', '969400', '', ( #241 ) ) ;
#41 = ORIENTED_EDGE ( 'NONE', *, *, #160, .T. ) ;
#42 = PERSON_AND_ORGANIZATION ( #177, #175 ) ;
#43 =( GEOMETRIC_REPRESENTATION_CONTEXT ( 3 ) GLOBAL_UNCERTAINTY_ASSIGNED_CONTEXT ( ( #14 ) ) GLOBAL_UNIT_ASSIGNED_CONTEXT ( ( #95, #62, #134 ) ) REPRESENTATION_CONTEXT ( 'NONE', 'WORKASPACE' ) );
#44 = FACE_OUTER_BOUND ( 'NONE', #187, .T. ) ;
#45 = CARTESIAN_POINT ( 'NONE',  ( 6.982962677686266711E-14, 1.528999999999999027, 20.00000000000000000 ) ) ;
#46 = FACE_OUTER_BOUND ( 'NONE', #205, .T. ) ;
#47 = CLOSED_SHELL ( 'NONE', ( #85, #33, #243, #230 ) ) ;
#48 = PERSON_AND_ORGANIZATION ( #177, #175 ) ;
#49 = CIRCLE ( 'NONE', #10, 1.529000000000001469 ) ;
#50 = DATE_AND_TIME ( #28, #52 ) ;
#51 = APPROVAL_STATUS ( 'not_yet_approved' ) ;
#52 = LOCAL_TIME ( 14, 8, 15.00000000000000000, #129 ) ;
#53 = DATE_AND_TIME ( #219, #167 ) ;
#54 = EDGE_LOOP ( 'NONE', ( #20 ) ) ;
#55 = EDGE_LOOP ( 'NONE', ( #98 ) ) ;
#56 = CARTESIAN_POINT ( 'NONE',  ( 8.728703347107827472E-16, -3.061616997868381169E-17, 0.2499999999999998335 ) ) ;
#57 = DIRECTION ( 'NONE',  ( 4.275831445896959482E-31, 1.000000000000000000, 1.224646799147353207E-16 ) ) ;
#58 = VERTEX_POINT ( 'NONE', #165 ) ;
#59 = CYLINDRICAL_SURFACE ( 'NONE', #119, 1.250000000000000666 ) ;
#60 = FACE_OUTER_BOUND ( 'NONE', #55, .T. ) ;
#61 = EDGE_LOOP ( 'NONE', ( #41 ) ) ;
#62 =( NAMED_UNIT ( * ) PLANE_ANGLE_UNIT ( ) SI_UNIT ( $, .RADIAN. ) );
#63 = ORIENTED_EDGE ( 'NONE', *, *, #26, .T. ) ;
#64 = AXIS2_PLACEMENT_3D ( 'NONE', #68, #212, #213 ) ;
#65 = CARTESIAN_POINT ( 'NONE',  ( 1.946500846405046877E-13, -6.827405905246494765E-15, 55.75000000000000000 ) ) ;
#66 = FACE_BOUND ( 'NONE', #191, .T. ) ;
#67 = CONICAL_SURFACE ( 'NONE', #228, 1.000000000000005551, 0.7853981633974473908 ) ;
#68 = CARTESIAN_POINT ( 'NONE',  ( 6.982962677686266711E-14, 1.146566353844987481E-32, 20.00000000000000000 ) ) ;
#69 = EDGE_CURVE ( 'NONE', #25, #25, #90, .T. ) ;
#70 = CARTESIAN_POINT ( 'NONE',  ( 1.955229549752154679E-13, -6.858022075225178552E-15, 56.00000000000000000 ) ) ;
#71 = PERSON_AND_ORGANIZATION_ROLE ( 'design_supplier' ) ;
#72 = COORDINATED_UNIVERSAL_TIME_OFFSET ( 1, 0, .AHEAD. ) ;
#73 = ADVANCED_FACE ( 'NONE', ( #17 ), #206, .F. ) ;
#74 = PERSON_AND_ORGANIZATION_ROLE ( 'classification_officer' ) ;
#75 = ORIENTED_EDGE ( 'NONE', *, *, #156, .T. ) ;
#76 = DESIGN_CONTEXT ( 'detailed design', #92, 'design' ) ;
#77 = DIRECTION ( 'NONE',  ( 3.778803030190788907E-31, 1.000000000000000000, 1.063638494917108629E-16 ) ) ;
#78 = ORIENTED_EDGE ( 'NONE', *, *, #69, .F. ) ;
#79 = ORIENTED_EDGE ( 'NONE', *, *, #69, .T. ) ;
#80 = PERSON_AND_ORGANIZATION ( #177, #175 ) ;
#81 = CIRCLE ( 'NONE', #218, 1.249999999999996003 ) ;
#82 = CC_DESIGN_DATE_AND_TIME_ASSIGNMENT ( #109, #182, ( #22 ) ) ;
#83 = DIRECTION ( 'NONE',  ( 0.0000000000000000000, 1.000000000000000000, 0.0000000000000000000 ) ) ;
#84 = CC_DESIGN_SECURITY_CLASSIFICATION ( #123, ( #242 ) ) ;
#85 = ADVANCED_FACE ( 'NONE', ( #168 ), #38, .F. ) ;
#86 = FACE_OUTER_BOUND ( 'NONE', #39, .T. ) ;
#87 = AXIS2_PLACEMENT_3D ( 'NONE', #104, #150, #96 ) ;
#88 = ADVANCED_FACE ( 'NONE', ( #60, #135 ), #166, .T. ) ;
#89 = PERSON_AND_ORGANIZATION ( #177, #175 ) ;
#90 = CIRCLE ( 'NONE', #132, 1.279000000000000581 ) ;
#91 = LOCAL_TIME ( 14, 8, 15.00000000000000000, #102 ) ;
#92 = APPLICATION_CONTEXT ( 'configuration controlled 3d designs of mechanical parts and assemblies' ) ;
#93 = PRODUCT_DEFINITION_SHAPE ( 'NONE', 'NONE',  #22 ) ;
#94 = APPLICATION_PROTOCOL_DEFINITION ( 'international standard', 'config_control_design', 1994, #226 ) ;
#95 =( LENGTH_UNIT ( ) NAMED_UNIT ( * ) SI_UNIT ( .MILLI., .METRE. ) );
#96 = DIRECTION ( 'NONE',  ( 0.0000000000000000000, 1.000000000000000000, 0.0000000000000000000 ) ) ;
#97 = DIRECTION ( 'NONE',  ( 4.275831445896958607E-31, 1.000000000000000000, 1.224646799147353207E-16 ) ) ;
#98 = ORIENTED_EDGE ( 'NONE', *, *, #156, .F. ) ;
#99 = DIRECTION ( 'NONE',  ( 4.275831445896957731E-31, 1.000000000000000000, 1.224646799147353454E-16 ) ) ;
#100 = CARTESIAN_POINT ( 'NONE',  ( 1.051077443115216467E-31, -3.686683391507211639E-33, 3.010405444307716967E-17 ) ) ;
#101 = ORIENTED_EDGE ( 'NONE', *, *, #160, .F. ) ;
#102 = COORDINATED_UNIVERSAL_TIME_OFFSET ( 1, 0, .AHEAD. ) ;
#103 = CARTESIAN_POINT ( 'NONE',  ( 7.151685781410553850E-14, -2.508473696615557985E-15, 20.48324217531173375 ) ) ;
#104 = CARTESIAN_POINT ( 'NONE',  ( 6.982962677686266711E-14, -2.449293598294706513E-15, 20.00000000000000000 ) ) ;
#105 = DIRECTION ( 'NONE',  ( 0.0000000000000000000, 1.000000000000000000, 0.0000000000000000000 ) ) ;
#106 = DIRECTION ( 'NONE',  ( 0.0000000000000000000, 1.000000000000000000, 0.0000000000000000000 ) ) ;
#107 = CARTESIAN_POINT ( 'NONE',  ( 6.982962677686266711E-14, 1.146566353844987481E-32, 20.00000000000000000 ) ) ;
#108 = CARTESIAN_POINT ( 'NONE',  ( 2.102154886230432935E-31, -7.373366783014423277E-33, 6.020810888615433935E-17 ) ) ;
#109 = DATE_AND_TIME ( #34, #111 ) ;
#110 = APPROVAL ( #117, 'UNSPECIFIED' ) ;
#111 = LOCAL_TIME ( 14, 8, 15.00000000000000000, #72 ) ;
#112 = APPROVAL_PERSON_ORGANIZATION ( #42, #110, #192 ) ;
#113 = DIRECTION ( 'NONE',  ( 0.0000000000000000000, 0.0000000000000000000, 1.000000000000000000 ) ) ;
#114 = CARTESIAN_POINT ( 'NONE',  ( 1.955229549752154679E-13, 7.498798913309223722E-33, 56.00000000000000000 ) ) ;
#115 = ORIENTED_EDGE ( 'NONE', *, *, #202, .F. ) ;
#116 = EDGE_LOOP ( 'NONE', ( #115 ) ) ;
#117 = APPROVAL_STATUS ( 'not_yet_approved' ) ;
#118 = CONICAL_SURFACE ( 'NONE', #8, 1.528999999999997694, 0.7853981633974426169 ) ;
#119 = AXIS2_PLACEMENT_3D ( 'NONE', #190, #19, #99 ) ;
#120 = PLANE ( 'NONE',  #149 ) ;
#121 = CC_DESIGN_PERSON_AND_ORGANIZATION_ASSIGNMENT ( #32, #11, ( #242 ) ) ;
#122 = CYLINDRICAL_SURFACE ( 'NONE', #229, 1.528999999999999471 ) ;
#123 = SECURITY_CLASSIFICATION ( '', '', #214 ) ;
#124 = APPROVAL_ROLE ( '' ) ;
#125 = VERTEX_POINT ( 'NONE', #181 ) ;
#126 = ADVANCED_FACE ( 'NONE', ( #147, #37 ), #67, .T. ) ;
#127 = CIRCLE ( 'NONE', #87, 1.529000000000001469 ) ;
#128 = APPROVAL_PERSON_ORGANIZATION ( #89, #207, #201 ) ;
#129 = COORDINATED_UNIVERSAL_TIME_OFFSET ( 1, 0, .AHEAD. ) ;
#130 = DIRECTION ( 'NONE',  ( -3.491481338843133355E-15, 1.224646799147353207E-16, -1.000000000000000000 ) ) ;
#131 = VERTEX_POINT ( 'NONE', #15 ) ;
#132 = AXIS2_PLACEMENT_3D ( 'NONE', #108, #130, #57 ) ;
#133 = AXIS2_PLACEMENT_3D ( 'NONE', #152, #113, #184 ) ;
#134 =( NAMED_UNIT ( * ) SI_UNIT ( $, .STERADIAN. ) SOLID_ANGLE_UNIT ( ) );
#135 = FACE_BOUND ( 'NONE', #220, .T. ) ;
#136 = DIRECTION ( 'NONE',  ( 0.0000000000000000000, 1.000000000000000000, 0.0000000000000000000 ) ) ;
#137 = CARTESIAN_POINT ( 'NONE',  ( 7.151685781410553850E-14, -2.508473696615557985E-15, 20.48324217531173375 ) ) ;
#138 = AXIS2_PLACEMENT_3D ( 'NONE', #100, #1, #154 ) ;
#139 = CARTESIAN_POINT ( 'NONE',  ( 8.728703347107827472E-16, -3.061616997868381169E-17, 0.2499999999999998335 ) ) ;
#140 = CC_DESIGN_APPROVAL ( #207, ( #242 ) ) ;
#141 = VERTEX_POINT ( 'NONE', #45 ) ;
#142 = CARTESIAN_POINT ( 'NONE',  ( 0.0000000000000000000, 0.0000000000000000000, 0.0000000000000000000 ) ) ;
#143 = DATE_TIME_ROLE ( 'classification_date' ) ;
#144 = DIRECTION ( 'NONE',  ( 0.0000000000000000000, 1.000000000000000000, 0.0000000000000000000 ) ) ;
#145 = CC_DESIGN_PERSON_AND_ORGANIZATION_ASSIGNMENT ( #203, #74, ( #123 ) ) ;
#146 = COORDINATED_UNIVERSAL_TIME_OFFSET ( 1, 0, .AHEAD. ) ;
#147 = FACE_OUTER_BOUND ( 'NONE', #222, .T. ) ;
#148 = VERTEX_POINT ( 'NONE', #221 ) ;
#149 = AXIS2_PLACEMENT_3D ( 'NONE', #107, #232, #176 ) ;
#150 = DIRECTION ( 'NONE',  ( -3.491481338843133355E-15, 1.224646799147353207E-16, -1.000000000000000000 ) ) ;
#151 = ORIENTED_EDGE ( 'NONE', *, *, #202, .T. ) ;
#152 = CARTESIAN_POINT ( 'NONE',  ( 0.0000000000000000000, 0.0000000000000000000, 0.0000000000000000000 ) ) ;
#153 = FACE_OUTER_BOUND ( 'NONE', #240, .T. ) ;
#154 = DIRECTION ( 'NONE',  ( -4.275831445896958607E-31, -1.000000000000000000, -1.224646799147353207E-16 ) ) ;
#155 = PERSON_AND_ORGANIZATION_ROLE ( 'design_owner' ) ;
#156 = EDGE_CURVE ( 'NONE', #141, #141, #127, .T. ) ;
#157 = CARTESIAN_POINT ( 'NONE',  ( 1.946500846405046877E-13, 1.249999999999998446, 55.75000000000000000 ) ) ;
#158 = AXIS2_PLACEMENT_3D ( 'NONE', #56, #173, #77 ) ;
#159 = PLANE ( 'NONE',  #64 ) ;
#160 = EDGE_CURVE ( 'NONE', #125, #125, #16, .T. ) ;
#161 = APPROVAL_PERSON_ORGANIZATION ( #200, #23, #124 ) ;
#162 = CC_DESIGN_PERSON_AND_ORGANIZATION_ASSIGNMENT ( #80, #155, ( #40 ) ) ;
#163 = CLOSED_SHELL ( 'NONE', ( #196, #88, #178, #126, #73 ) ) ;
#164 = APPROVAL_STATUS ( 'not_yet_approved' ) ;
#165 = CARTESIAN_POINT ( 'NONE',  ( 7.151685781410553850E-14, 1.249999999999993339, 20.48324217531173375 ) ) ;
#166 = CONICAL_SURFACE ( 'NONE', #193, 1.249999999999996003, 0.5235987755982937086 ) ;
#167 = LOCAL_TIME ( 14, 8, 15.00000000000000000, #146 ) ;
#168 = FACE_OUTER_BOUND ( 'NONE', #171, .T. ) ;
#169 = ORIENTED_EDGE ( 'NONE', *, *, #26, .F. ) ;
#170 = CARTESIAN_POINT ( 'NONE',  ( 6.982962677686266711E-14, -2.449293598294706513E-15, 20.00000000000000000 ) ) ;
#171 = EDGE_LOOP ( 'NONE', ( #79 ) ) ;
#172 = CALENDAR_DATE ( 2021, 30, 11 ) ;
#173 = DIRECTION ( 'NONE',  ( -3.491481338843133355E-15, 1.224646799147353207E-16, -1.000000000000000000 ) ) ;
#174 = VERTEX_POINT ( 'NONE', #157 ) ;
#175 = ORGANIZATION ( 'UNSPECIFIED', 'UNSPECIFIED', '' ) ;
#176 = DIRECTION ( 'NONE',  ( -4.275831445896958607E-31, -1.000000000000000000, -1.224646799147353207E-16 ) ) ;
#177 = PERSON ( 'UNSPECIFIED', 'UNSPECIFIED', 'UNSPECIFIED', ('UNSPECIFIED'), ('UNSPECIFIED'), ('UNSPECIFIED') ) ;
#178 = ADVANCED_FACE ( 'NONE', ( #225, #153 ), #59, .T. ) ;
#179 = PERSON_AND_ORGANIZATION ( #177, #175 ) ;
#180 = DIRECTION ( 'NONE',  ( -3.491481338843133355E-15, 1.224646799147353207E-16, -1.000000000000000000 ) ) ;
#181 = CARTESIAN_POINT ( 'NONE',  ( 8.728703347107833388E-16, 1.528999999999997694, 0.2500000000000000000 ) ) ;
#182 = DATE_TIME_ROLE ( 'creation_date' ) ;
#183 = CIRCLE ( 'NONE', #204, 1.000000000000005551 ) ;
#184 = DIRECTION ( 'NONE',  ( 1.000000000000000000, 0.0000000000000000000, 0.0000000000000000000 ) ) ;
#185 = ORIENTED_EDGE ( 'NONE', *, *, #223, .F. ) ;
#186 = CARTESIAN_POINT ( 'NONE',  ( 1.955229549752154679E-13, -6.858022075225178552E-15, 56.00000000000000000 ) ) ;
#187 = EDGE_LOOP ( 'NONE', ( #101 ) ) ;
#188 = CC_DESIGN_APPROVAL ( #23, ( #123 ) ) ;
#189 = CC_DESIGN_DATE_AND_TIME_ASSIGNMENT ( #53, #143, ( #123 ) ) ;
#190 = CARTESIAN_POINT ( 'NONE',  ( 0.0000000000000000000, 0.0000000000000000000, 0.0000000000000000000 ) ) ;
#191 = EDGE_LOOP ( 'NONE', ( #78 ) ) ;
#192 = APPROVAL_ROLE ( '' ) ;
#193 = AXIS2_PLACEMENT_3D ( 'NONE', #103, #180, #144 ) ;
#194 = EDGE_CURVE ( 'NONE', #148, #148, #49, .T. ) ;
#195 = DIRECTION ( 'NONE',  ( 3.491481338843133355E-15, -1.224646799147353207E-16, 1.000000000000000000 ) ) ;
#196 = ADVANCED_FACE ( 'NONE', ( #86 ), #120, .F. ) ;
#197 = DIRECTION ( 'NONE',  ( -3.491481338843133355E-15, 1.224646799147353207E-16, -1.000000000000000000 ) ) ;
#198 = CALENDAR_DATE ( 2021, 30, 11 ) ;
#199 = FACE_OUTER_BOUND ( 'NONE', #54, .T. ) ;
#200 = PERSON_AND_ORGANIZATION ( #177, #175 ) ;
#201 = APPROVAL_ROLE ( '' ) ;
#202 = EDGE_CURVE ( 'NONE', #131, #131, #183, .T. ) ;
#203 = PERSON_AND_ORGANIZATION ( #177, #175 ) ;
#204 = AXIS2_PLACEMENT_3D ( 'NONE', #70, #24, #29 ) ;
#205 = EDGE_LOOP ( 'NONE', ( #18 ) ) ;
#206 = PLANE ( 'NONE',  #36 ) ;
#207 = APPROVAL ( #164, 'UNSPECIFIED' ) ;
#208 = APPLICATION_PROTOCOL_DEFINITION ( 'international standard', 'config_control_design', 1994, #92 ) ;
#209 = CARTESIAN_POINT ( 'NONE',  ( 7.570943305532645426E-31, 1.279000000000000581, 2.168404344971008868E-16 ) ) ;
#210 = PRODUCT_RELATED_PRODUCT_CATEGORY ( 'detail', '', ( #40 ) ) ;
#211 = CC_DESIGN_APPROVAL ( #110, ( #22 ) ) ;
#212 = DIRECTION ( 'NONE',  ( 3.491481338843133355E-15, -1.224646799147353207E-16, 1.000000000000000000 ) ) ;
#213 = DIRECTION ( 'NONE',  ( -4.275831445896958607E-31, -1.000000000000000000, -1.224646799147353207E-16 ) ) ;
#214 = SECURITY_CLASSIFICATION_LEVEL ( 'unclassified' ) ;
#215 = DIRECTION ( 'NONE',  ( 4.275831445896958607E-31, 1.000000000000000000, 1.224646799147353207E-16 ) ) ;
#216 = PERSON_AND_ORGANIZATION_ROLE ( 'creator' ) ;
#217 = DATE_AND_TIME ( #198, #31 ) ;
#218 = AXIS2_PLACEMENT_3D ( 'NONE', #137, #7, #83 ) ;
#219 = CALENDAR_DATE ( 2021, 30, 11 ) ;
#220 = EDGE_LOOP ( 'NONE', ( #224 ) ) ;
#221 = CARTESIAN_POINT ( 'NONE',  ( 6.982962677686266711E-14, 1.528999999999999027, 20.00000000000000000 ) ) ;
#222 = EDGE_LOOP ( 'NONE', ( #169 ) ) ;
#223 = EDGE_CURVE ( 'NONE', #58, #58, #81, .T. ) ;
#224 = ORIENTED_EDGE ( 'NONE', *, *, #223, .T. ) ;
#225 = FACE_OUTER_BOUND ( 'NONE', #35, .T. ) ;
#226 = APPLICATION_CONTEXT ( 'configuration controlled 3d designs of mechanical parts and assemblies' ) ;
#227 = DIRECTION ( 'NONE',  ( -3.491481338843133355E-15, 1.224646799147353207E-16, -1.000000000000000000 ) ) ;
#228 = AXIS2_PLACEMENT_3D ( 'NONE', #186, #21, #105 ) ;
#229 = AXIS2_PLACEMENT_3D ( 'NONE', #142, #197, #215 ) ;
#230 = ADVANCED_FACE ( 'NONE', ( #199 ), #159, .T. ) ;
#231 = CC_DESIGN_PERSON_AND_ORGANIZATION_ASSIGNMENT ( #179, #71, ( #242 ) ) ;
#232 = DIRECTION ( 'NONE',  ( 3.491481338843133355E-15, -1.224646799147353207E-16, 1.000000000000000000 ) ) ;
#233 = SHAPE_DEFINITION_REPRESENTATION ( #93, #239 ) ;
#234 = AXIS2_PLACEMENT_3D ( 'NONE', #65, #227, #106 ) ;
#235 = APPROVAL_DATE_TIME ( #217, #207 ) ;
#236 = APPROVAL_DATE_TIME ( #50, #23 ) ;
#237 = APPROVAL_DATE_TIME ( #5, #110 ) ;
#238 = CIRCLE ( 'NONE', #234, 1.250000000000005329 ) ;
#239 = ADVANCED_BREP_SHAPE_REPRESENTATION ( '969400', ( #13, #9, #133 ), #43 ) ;
#240 = EDGE_LOOP ( 'NONE', ( #63 ) ) ;
#241 = MECHANICAL_CONTEXT ( 'NONE', #226, 'mechanical' ) ;
#242 = PRODUCT_DEFINITION_FORMATION_WITH_SPECIFIED_SOURCE ( 'ANY', '', #40, .NOT_KNOWN. ) ;
#243 = ADVANCED_FACE ( 'NONE', ( #44, #46 ), #122, .T. ) ;
ENDSEC;
END-ISO-10303-21;
