ISO-10303-21;
HEADER;
FILE_DESCRIPTION (( 'STEP AP203' ),
    '1' );
FILE_NAME ('969399.step',
    '2021-11-30T13:08:15',
    ( '' ),
    ( '' ),
    'SwSTEP 2.0',
    'SolidWorks 2019',
    '' );
FILE_SCHEMA (( 'CONFIG_CONTROL_DESIGN' ));
ENDSEC;

DATA;
#1 = FACE_OUTER_BOUND ( 'NONE', #114, .T. ) ;
#2 = ORIENTED_EDGE ( 'NONE', *, *, #205, .F. ) ;
#3 = DATE_TIME_ROLE ( 'classification_date' ) ;
#4 = AXIS2_PLACEMENT_3D ( 'NONE', #232, #100, #176 ) ;
#5 = FACE_OUTER_BOUND ( 'NONE', #197, .T. ) ;
#6 = CARTESIAN_POINT ( 'NONE',  ( 6.982962677686265448E-14, 4.362378920069036970E-31, 19.99999999999999645 ) ) ;
#7 = DIRECTION ( 'NONE',  ( 4.275831445896958607E-31, 1.000000000000000000, 1.224646799147353207E-16 ) ) ;
#8 = ORIENTED_EDGE ( 'NONE', *, *, #34, .F. ) ;
#9 = CIRCLE ( 'NONE', #12, 1.000000000000005551 ) ;
#10 = DIRECTION ( 'NONE',  ( -3.491481338843133355E-15, 1.224646799147353207E-16, -1.000000000000000000 ) ) ;
#11 = CARTESIAN_POINT ( 'NONE',  ( 1.135641495829896858E-30, 1.264000000000000457, 3.252606517456513302E-16 ) ) ;
#12 = AXIS2_PLACEMENT_3D ( 'NONE', #170, #109, #68 ) ;
#13 = MANIFOLD_SOLID_BREP ( 'Corps-Déplacer/Copier1[1]', #38 ) ;
#14 = VERTEX_POINT ( 'NONE', #46 ) ;
#15 = CALENDAR_DATE ( 2021, 30, 11 ) ;
#16 = CARTESIAN_POINT ( 'NONE',  ( 1.955229549752154679E-13, 0.9999999999999985567, 56.00000000000000000 ) ) ;
#17 = LOCAL_TIME ( 14, 8, 15.00000000000000000, #111 ) ;
#18 = AXIS2_PLACEMENT_3D ( 'NONE', #160, #212, #40 ) ;
#19 = UNCERTAINTY_MEASURE_WITH_UNIT (LENGTH_MEASURE( 1.000000000000000082E-05 ), #235, 'distance_accuracy_value', 'NONE');
#20 = COORDINATED_UNIVERSAL_TIME_OFFSET ( 1, 0, .AHEAD. ) ;
#21 = AXIS2_PLACEMENT_3D ( 'NONE', #140, #10, #165 ) ;
#22 = ORIENTED_EDGE ( 'NONE', *, *, #226, .F. ) ;
#23 = CC_DESIGN_PERSON_AND_ORGANIZATION_ASSIGNMENT ( #126, #201, ( #107 ) ) ;
#24 = DIRECTION ( 'NONE',  ( 3.491481338843133355E-15, -1.224646799147353207E-16, 1.000000000000000000 ) ) ;
#25 = DIRECTION ( 'NONE',  ( -3.491481338843133355E-15, 1.224646799147353207E-16, -1.000000000000000000 ) ) ;
#26 = DIRECTION ( 'NONE',  ( -3.816241633528214534E-31, -1.000000000000000000, -1.074176524919589996E-16 ) ) ;
#27 = ADVANCED_FACE ( 'NONE', ( #39, #1 ), #141, .T. ) ;
#28 = CC_DESIGN_PERSON_AND_ORGANIZATION_ASSIGNMENT ( #33, #189, ( #78 ) ) ;
#29 = FACE_OUTER_BOUND ( 'NONE', #101, .T. ) ;
#30 = EDGE_LOOP ( 'NONE', ( #151 ) ) ;
#31 = CARTESIAN_POINT ( 'NONE',  ( 6.982962677686265448E-14, 1.513999999999998014, 19.99999999999999645 ) ) ;
#32 = PRODUCT_RELATED_PRODUCT_CATEGORY ( 'detail', '', ( #107 ) ) ;
#33 = PERSON_AND_ORGANIZATION ( #211, #41 ) ;
#34 = EDGE_CURVE ( 'NONE', #80, #80, #73, .T. ) ;
#35 = AXIS2_PLACEMENT_3D ( 'NONE', #236, #187, #104 ) ;
#36 = APPROVAL_ROLE ( '' ) ;
#37 = CC_DESIGN_PERSON_AND_ORGANIZATION_ASSIGNMENT ( #221, #66, ( #64 ) ) ;
#38 = CLOSED_SHELL ( 'NONE', ( #200, #159, #127, #166, #86 ) ) ;
#39 = FACE_BOUND ( 'NONE', #162, .T. ) ;
#40 = DIRECTION ( 'NONE',  ( 0.0000000000000000000, 1.000000000000000000, 0.0000000000000000000 ) ) ;
#41 = ORGANIZATION ( 'UNSPECIFIED', 'UNSPECIFIED', '' ) ;
#42 = CARTESIAN_POINT ( 'NONE',  ( 0.0000000000000000000, 0.0000000000000000000, 0.0000000000000000000 ) ) ;
#43 = APPROVAL_PERSON_ORGANIZATION ( #113, #234, #115 ) ;
#44 = APPLICATION_PROTOCOL_DEFINITION ( 'international standard', 'config_control_design', 1994, #95 ) ;
#45 = VERTEX_POINT ( 'NONE', #106 ) ;
#46 = CARTESIAN_POINT ( 'NONE',  ( 8.728703347107833388E-16, 1.513999999999997570, 0.2500000000000000000 ) ) ;
#47 = EDGE_LOOP ( 'NONE', ( #55 ) ) ;
#48 = LOCAL_TIME ( 14, 8, 15.00000000000000000, #20 ) ;
#49 = APPLICATION_PROTOCOL_DEFINITION ( 'international standard', 'config_control_design', 1994, #125 ) ;
#50 = EDGE_LOOP ( 'NONE', ( #231 ) ) ;
#51 = CARTESIAN_POINT ( 'NONE',  ( 8.728703347107827472E-16, -3.061616997868381169E-17, 0.2499999999999998335 ) ) ;
#52 = CONICAL_SURFACE ( 'NONE', #4, 1.249999999999996003, 0.5235987755982889347 ) ;
#53 = CYLINDRICAL_SURFACE ( 'NONE', #21, 1.250000000000000666 ) ;
#54 = DIRECTION ( 'NONE',  ( -3.491481338843133355E-15, 1.224646799147353207E-16, -1.000000000000000000 ) ) ;
#55 = ORIENTED_EDGE ( 'NONE', *, *, #167, .F. ) ;
#56 = CARTESIAN_POINT ( 'NONE',  ( 2.975882005342605990E-31, -1.043798897602175111E-32, 8.523264816671292890E-17 ) ) ;
#57 = AXIS2_PLACEMENT_3D ( 'NONE', #94, #177, #215 ) ;
#58 = FACE_OUTER_BOUND ( 'NONE', #47, .T. ) ;
#59 = ORIENTED_EDGE ( 'NONE', *, *, #233, .F. ) ;
#60 = CC_DESIGN_PERSON_AND_ORGANIZATION_ASSIGNMENT ( #112, #84, ( #183 ) ) ;
#61 = FACE_OUTER_BOUND ( 'NONE', #143, .T. ) ;
#62 = EDGE_LOOP ( 'NONE', ( #2 ) ) ;
#63 = ADVANCED_FACE ( 'NONE', ( #139 ), #96, .T. ) ;
#64 = PRODUCT_DEFINITION_FORMATION_WITH_SPECIFIED_SOURCE ( 'ANY', '', #107, .NOT_KNOWN. ) ;
#65 = CARTESIAN_POINT ( 'NONE',  ( 1.946500846405046877E-13, 1.249999999999998446, 55.75000000000000000 ) ) ;
#66 = PERSON_AND_ORGANIZATION_ROLE ( 'creator' ) ;
#67 = APPROVAL_DATE_TIME ( #130, #172 ) ;
#68 = DIRECTION ( 'NONE',  ( 0.0000000000000000000, 1.000000000000000000, 0.0000000000000000000 ) ) ;
#69 = AXIS2_PLACEMENT_3D ( 'NONE', #51, #134, #26 ) ;
#70 = EDGE_CURVE ( 'NONE', #14, #14, #128, .T. ) ;
#71 = PERSON_AND_ORGANIZATION ( #211, #41 ) ;
#72 = PLANE ( 'NONE',  #131 ) ;
#73 = CIRCLE ( 'NONE', #237, 1.264000000000000457 ) ;
#74 = CYLINDRICAL_SURFACE ( 'NONE', #225, 1.513999999999998902 ) ;
#75 = COORDINATED_UNIVERSAL_TIME_OFFSET ( 1, 0, .AHEAD. ) ;
#76 = CARTESIAN_POINT ( 'NONE',  ( 5.951764010685211980E-31, -2.087597795204350221E-32, 1.704652963334258578E-16 ) ) ;
#77 = CARTESIAN_POINT ( 'NONE',  ( 6.982962677686265448E-14, 4.362378920069036970E-31, 19.99999999999999645 ) ) ;
#78 = SECURITY_CLASSIFICATION ( '', '', #204 ) ;
#79 = PLANE ( 'NONE',  #82 ) ;
#80 = VERTEX_POINT ( 'NONE', #11 ) ;
#81 = ADVANCED_FACE ( 'NONE', ( #122 ), #79, .F. ) ;
#82 = AXIS2_PLACEMENT_3D ( 'NONE', #56, #229, #198 ) ;
#83 = VERTEX_POINT ( 'NONE', #31 ) ;
#84 = PERSON_AND_ORGANIZATION_ROLE ( 'creator' ) ;
#85 =( NAMED_UNIT ( * ) SI_UNIT ( $, .STERADIAN. ) SOLID_ANGLE_UNIT ( ) );
#86 = ADVANCED_FACE ( 'NONE', ( #29 ), #72, .F. ) ;
#87 = APPROVAL_DATE_TIME ( #241, #234 ) ;
#88 = AXIS2_PLACEMENT_3D ( 'NONE', #146, #218, #168 ) ;
#89 = ORIENTED_EDGE ( 'NONE', *, *, #243, .F. ) ;
#90 = EDGE_LOOP ( 'NONE', ( #97 ) ) ;
#91 = APPROVAL_STATUS ( 'not_yet_approved' ) ;
#92 = APPROVAL_STATUS ( 'not_yet_approved' ) ;
#93 = DIRECTION ( 'NONE',  ( 4.275831445896957731E-31, 1.000000000000000000, 1.224646799147352961E-16 ) ) ;
#94 = CARTESIAN_POINT ( 'NONE',  ( 6.982962677686265448E-14, -2.449293598294706119E-15, 19.99999999999999645 ) ) ;
#95 = APPLICATION_CONTEXT ( 'configuration controlled 3d designs of mechanical parts and assemblies' ) ;
#96 = PLANE ( 'NONE',  #103 ) ;
#97 = ORIENTED_EDGE ( 'NONE', *, *, #70, .F. ) ;
#98 = DIRECTION ( 'NONE',  ( -3.491481338843133355E-15, 1.224646799147353207E-16, -1.000000000000000000 ) ) ;
#99 = CIRCLE ( 'NONE', #35, 1.514000000000000457 ) ;
#100 = DIRECTION ( 'NONE',  ( -3.491481338843133355E-15, 1.224646799147353207E-16, -1.000000000000000000 ) ) ;
#101 = EDGE_LOOP ( 'NONE', ( #89 ) ) ;
#102 = CARTESIAN_POINT ( 'NONE',  ( 1.946500846405046877E-13, -6.827405905246494765E-15, 55.75000000000000000 ) ) ;
#103 = AXIS2_PLACEMENT_3D ( 'NONE', #6, #161, #180 ) ;
#104 = DIRECTION ( 'NONE',  ( 0.0000000000000000000, 1.000000000000000000, 0.0000000000000000000 ) ) ;
#105 = COORDINATED_UNIVERSAL_TIME_OFFSET ( 1, 0, .AHEAD. ) ;
#106 = CARTESIAN_POINT ( 'NONE',  ( 6.982962677686265448E-14, 1.513999999999998014, 19.99999999999999645 ) ) ;
#107 = PRODUCT ( '969399', '969399', '', ( #238 ) ) ;
#108 = PERSON_AND_ORGANIZATION ( #211, #41 ) ;
#109 = DIRECTION ( 'NONE',  ( -3.491481338843133355E-15, 1.224646799147353207E-16, -1.000000000000000000 ) ) ;
#110 = CC_DESIGN_APPROVAL ( #184, ( #183 ) ) ;
#111 = COORDINATED_UNIVERSAL_TIME_OFFSET ( 1, 0, .AHEAD. ) ;
#112 = PERSON_AND_ORGANIZATION ( #211, #41 ) ;
#113 = PERSON_AND_ORGANIZATION ( #211, #41 ) ;
#114 = EDGE_LOOP ( 'NONE', ( #174 ) ) ;
#115 = APPROVAL_ROLE ( '' ) ;
#116 = EDGE_LOOP ( 'NONE', ( #207 ) ) ;
#117 = FACE_OUTER_BOUND ( 'NONE', #30, .T. ) ;
#118 = CC_DESIGN_PERSON_AND_ORGANIZATION_ASSIGNMENT ( #108, #217, ( #64 ) ) ;
#119 = AXIS2_PLACEMENT_3D ( 'NONE', #77, #24, #163 ) ;
#120 = FACE_OUTER_BOUND ( 'NONE', #90, .T. ) ;
#121 = PRODUCT_DEFINITION_SHAPE ( 'NONE', 'NONE',  #183 ) ;
#122 = FACE_OUTER_BOUND ( 'NONE', #216, .T. ) ;
#123 = DIRECTION ( 'NONE',  ( -3.491481338843133355E-15, 1.224646799147353207E-16, -1.000000000000000000 ) ) ;
#124 = APPROVAL_PERSON_ORGANIZATION ( #71, #172, #150 ) ;
#125 = APPLICATION_CONTEXT ( 'configuration controlled 3d designs of mechanical parts and assemblies' ) ;
#126 = PERSON_AND_ORGANIZATION ( #211, #41 ) ;
#127 = ADVANCED_FACE ( 'NONE', ( #58, #196 ), #53, .T. ) ;
#128 = CIRCLE ( 'NONE', #181, 1.513999999999997570 ) ;
#129 = EDGE_LOOP ( 'NONE', ( #22 ) ) ;
#130 = DATE_AND_TIME ( #224, #17 ) ;
#131 = AXIS2_PLACEMENT_3D ( 'NONE', #194, #54, #7 ) ;
#132 = EDGE_LOOP ( 'NONE', ( #210 ) ) ;
#133 = CALENDAR_DATE ( 2021, 30, 11 ) ;
#134 = DIRECTION ( 'NONE',  ( 3.491481338843133355E-15, -1.224646799147353207E-16, 1.000000000000000000 ) ) ;
#135 = CIRCLE ( 'NONE', #57, 1.514000000000000457 ) ;
#136 = CC_DESIGN_APPROVAL ( #234, ( #78 ) ) ;
#137 = CC_DESIGN_SECURITY_CLASSIFICATION ( #78, ( #64 ) ) ;
#138 = FACE_OUTER_BOUND ( 'NONE', #129, .T. ) ;
#139 = FACE_OUTER_BOUND ( 'NONE', #62, .T. ) ;
#140 = CARTESIAN_POINT ( 'NONE',  ( 0.0000000000000000000, 0.0000000000000000000, 0.0000000000000000000 ) ) ;
#141 = CONICAL_SURFACE ( 'NONE', #69, 1.513999999999997570, 0.7853981633974432830 ) ;
#142 = FACE_BOUND ( 'NONE', #50, .T. ) ;
#143 = EDGE_LOOP ( 'NONE', ( #59 ) ) ;
#144 = DIRECTION ( 'NONE',  ( 3.816241633528214534E-31, 1.000000000000000000, 1.074176524919589996E-16 ) ) ;
#145 =( NAMED_UNIT ( * ) PLANE_ANGLE_UNIT ( ) SI_UNIT ( $, .RADIAN. ) );
#146 = CARTESIAN_POINT ( 'NONE',  ( 0.0000000000000000000, 0.0000000000000000000, 0.0000000000000000000 ) ) ;
#147 =( GEOMETRIC_REPRESENTATION_CONTEXT ( 3 ) GLOBAL_UNCERTAINTY_ASSIGNED_CONTEXT ( ( #19 ) ) GLOBAL_UNIT_ASSIGNED_CONTEXT ( ( #235, #145, #85 ) ) REPRESENTATION_CONTEXT ( 'NONE', 'WORKASPACE' ) );
#148 = DIRECTION ( 'NONE',  ( 0.0000000000000000000, 1.000000000000000000, 0.0000000000000000000 ) ) ;
#149 = COORDINATED_UNIVERSAL_TIME_OFFSET ( 1, 0, .AHEAD. ) ;
#150 = APPROVAL_ROLE ( '' ) ;
#151 = ORIENTED_EDGE ( 'NONE', *, *, #226, .T. ) ;
#152 = APPROVAL_DATE_TIME ( #203, #184 ) ;
#153 = ADVANCED_BREP_SHAPE_REPRESENTATION ( '969399', ( #13, #179, #88 ), #147 ) ;
#154 = ORIENTED_EDGE ( 'NONE', *, *, #205, .T. ) ;
#155 = SHAPE_DEFINITION_REPRESENTATION ( #121, #153 ) ;
#156 = LOCAL_TIME ( 14, 8, 15.00000000000000000, #149 ) ;
#157 = DIRECTION ( 'NONE',  ( -3.491481338843133355E-15, 1.224646799147353207E-16, -1.000000000000000000 ) ) ;
#158 = CIRCLE ( 'NONE', #18, 1.249999999999996003 ) ;
#159 = ADVANCED_FACE ( 'NONE', ( #138, #230 ), #52, .T. ) ;
#160 = CARTESIAN_POINT ( 'NONE',  ( 7.142614646801721968E-14, -2.505291970899383247E-15, 20.45726141319820002 ) ) ;
#161 = DIRECTION ( 'NONE',  ( 3.491481338843133355E-15, -1.224646799147353207E-16, 1.000000000000000000 ) ) ;
#162 = EDGE_LOOP ( 'NONE', ( #8 ) ) ;
#163 = DIRECTION ( 'NONE',  ( -4.275831445896958607E-31, -1.000000000000000000, -1.224646799147353207E-16 ) ) ;
#164 = AXIS2_PLACEMENT_3D ( 'NONE', #228, #157, #227 ) ;
#165 = DIRECTION ( 'NONE',  ( 4.275831445896957731E-31, 1.000000000000000000, 1.224646799147353454E-16 ) ) ;
#166 = ADVANCED_FACE ( 'NONE', ( #61, #142 ), #173, .T. ) ;
#167 = EDGE_CURVE ( 'NONE', #220, #220, #158, .T. ) ;
#168 = DIRECTION ( 'NONE',  ( 1.000000000000000000, 0.0000000000000000000, 0.0000000000000000000 ) ) ;
#169 = DATE_AND_TIME ( #15, #199 ) ;
#170 = CARTESIAN_POINT ( 'NONE',  ( 1.955229549752154679E-13, -6.858022075225178552E-15, 56.00000000000000000 ) ) ;
#171 = CIRCLE ( 'NONE', #208, 1.250000000000005329 ) ;
#172 = APPROVAL ( #240, 'UNSPECIFIED' ) ;
#173 = CONICAL_SURFACE ( 'NONE', #164, 1.000000000000005551, 0.7853981633974473908 ) ;
#174 = ORIENTED_EDGE ( 'NONE', *, *, #70, .T. ) ;
#175 = APPROVAL_PERSON_ORGANIZATION ( #209, #184, #36 ) ;
#176 = DIRECTION ( 'NONE',  ( 0.0000000000000000000, 1.000000000000000000, 0.0000000000000000000 ) ) ;
#177 = DIRECTION ( 'NONE',  ( -3.491481338843133355E-15, 1.224646799147353207E-16, -1.000000000000000000 ) ) ;
#178 = CARTESIAN_POINT ( 'NONE',  ( 8.728703347107827472E-16, -3.061616997868381169E-17, 0.2499999999999998335 ) ) ;
#179 = MANIFOLD_SOLID_BREP ( 'Corps-Déplacer/Copier1[2]', #242 ) ;
#180 = DIRECTION ( 'NONE',  ( -4.275831445896958607E-31, -1.000000000000000000, -1.224646799147353207E-16 ) ) ;
#181 = AXIS2_PLACEMENT_3D ( 'NONE', #178, #123, #144 ) ;
#182 = CARTESIAN_POINT ( 'NONE',  ( 7.142614646801721968E-14, 1.249999999999993339, 20.45726141319820002 ) ) ;
#183 = PRODUCT_DEFINITION ( 'UNKNOWN', '', #64, #219 ) ;
#184 = APPROVAL ( #92, 'UNSPECIFIED' ) ;
#185 = DIRECTION ( 'NONE',  ( -3.491481338843133355E-15, 1.224646799147353207E-16, -1.000000000000000000 ) ) ;
#186 = CC_DESIGN_APPROVAL ( #172, ( #64 ) ) ;
#187 = DIRECTION ( 'NONE',  ( -3.491481338843133355E-15, 1.224646799147353207E-16, -1.000000000000000000 ) ) ;
#188 = VERTEX_POINT ( 'NONE', #16 ) ;
#189 = PERSON_AND_ORGANIZATION_ROLE ( 'classification_officer' ) ;
#190 = CC_DESIGN_DATE_AND_TIME_ASSIGNMENT ( #191, #3, ( #78 ) ) ;
#191 = DATE_AND_TIME ( #223, #156 ) ;
#192 = CC_DESIGN_DATE_AND_TIME_ASSIGNMENT ( #169, #239, ( #183 ) ) ;
#193 = PLANE ( 'NONE',  #119 ) ;
#194 = CARTESIAN_POINT ( 'NONE',  ( 1.955229549752154679E-13, 7.498798913309223722E-33, 56.00000000000000000 ) ) ;
#195 = ADVANCED_FACE ( 'NONE', ( #120, #5 ), #74, .T. ) ;
#196 = FACE_OUTER_BOUND ( 'NONE', #116, .T. ) ;
#197 = EDGE_LOOP ( 'NONE', ( #154 ) ) ;
#198 = DIRECTION ( 'NONE',  ( -4.275831445896958607E-31, -1.000000000000000000, -1.224646799147353207E-16 ) ) ;
#199 = LOCAL_TIME ( 14, 8, 15.00000000000000000, #105 ) ;
#200 = ADVANCED_FACE ( 'NONE', ( #117 ), #193, .F. ) ;
#201 = PERSON_AND_ORGANIZATION_ROLE ( 'design_owner' ) ;
#202 = LOCAL_TIME ( 14, 8, 15.00000000000000000, #75 ) ;
#203 = DATE_AND_TIME ( #214, #202 ) ;
#204 = SECURITY_CLASSIFICATION_LEVEL ( 'unclassified' ) ;
#205 = EDGE_CURVE ( 'NONE', #83, #83, #135, .T. ) ;
#206 = ORIENTED_EDGE ( 'NONE', *, *, #34, .T. ) ;
#207 = ORIENTED_EDGE ( 'NONE', *, *, #233, .T. ) ;
#208 = AXIS2_PLACEMENT_3D ( 'NONE', #102, #185, #148 ) ;
#209 = PERSON_AND_ORGANIZATION ( #211, #41 ) ;
#210 = ORIENTED_EDGE ( 'NONE', *, *, #167, .T. ) ;
#211 = PERSON ( 'UNSPECIFIED', 'UNSPECIFIED', 'UNSPECIFIED', ('UNSPECIFIED'), ('UNSPECIFIED'), ('UNSPECIFIED') ) ;
#212 = DIRECTION ( 'NONE',  ( -3.491481338843133355E-15, 1.224646799147353207E-16, -1.000000000000000000 ) ) ;
#213 = DIRECTION ( 'NONE',  ( 4.275831445896958607E-31, 1.000000000000000000, 1.224646799147353207E-16 ) ) ;
#214 = CALENDAR_DATE ( 2021, 30, 11 ) ;
#215 = DIRECTION ( 'NONE',  ( 0.0000000000000000000, 1.000000000000000000, 0.0000000000000000000 ) ) ;
#216 = EDGE_LOOP ( 'NONE', ( #206 ) ) ;
#217 = PERSON_AND_ORGANIZATION_ROLE ( 'design_supplier' ) ;
#218 = DIRECTION ( 'NONE',  ( 0.0000000000000000000, 0.0000000000000000000, 1.000000000000000000 ) ) ;
#219 = DESIGN_CONTEXT ( 'detailed design', #125, 'design' ) ;
#220 = VERTEX_POINT ( 'NONE', #182 ) ;
#221 = PERSON_AND_ORGANIZATION ( #211, #41 ) ;
#222 = VERTEX_POINT ( 'NONE', #65 ) ;
#223 = CALENDAR_DATE ( 2021, 30, 11 ) ;
#224 = CALENDAR_DATE ( 2021, 30, 11 ) ;
#225 = AXIS2_PLACEMENT_3D ( 'NONE', #42, #25, #213 ) ;
#226 = EDGE_CURVE ( 'NONE', #45, #45, #99, .T. ) ;
#227 = DIRECTION ( 'NONE',  ( 0.0000000000000000000, 1.000000000000000000, 0.0000000000000000000 ) ) ;
#228 = CARTESIAN_POINT ( 'NONE',  ( 1.955229549752154679E-13, -6.858022075225178552E-15, 56.00000000000000000 ) ) ;
#229 = DIRECTION ( 'NONE',  ( 3.491481338843133355E-15, -1.224646799147353207E-16, 1.000000000000000000 ) ) ;
#230 = FACE_BOUND ( 'NONE', #132, .T. ) ;
#231 = ORIENTED_EDGE ( 'NONE', *, *, #243, .T. ) ;
#232 = CARTESIAN_POINT ( 'NONE',  ( 7.142614646801721968E-14, -2.505291970899383247E-15, 20.45726141319820002 ) ) ;
#233 = EDGE_CURVE ( 'NONE', #222, #222, #171, .T. ) ;
#234 = APPROVAL ( #91, 'UNSPECIFIED' ) ;
#235 =( LENGTH_UNIT ( ) NAMED_UNIT ( * ) SI_UNIT ( .MILLI., .METRE. ) );
#236 = CARTESIAN_POINT ( 'NONE',  ( 6.982962677686265448E-14, -2.449293598294706119E-15, 19.99999999999999645 ) ) ;
#237 = AXIS2_PLACEMENT_3D ( 'NONE', #76, #98, #93 ) ;
#238 = MECHANICAL_CONTEXT ( 'NONE', #95, 'mechanical' ) ;
#239 = DATE_TIME_ROLE ( 'creation_date' ) ;
#240 = APPROVAL_STATUS ( 'not_yet_approved' ) ;
#241 = DATE_AND_TIME ( #133, #48 ) ;
#242 = CLOSED_SHELL ( 'NONE', ( #81, #27, #195, #63 ) ) ;
#243 = EDGE_CURVE ( 'NONE', #188, #188, #9, .T. ) ;
ENDSEC;
END-ISO-10303-21;
