ISO-10303-21;
HEADER;
FILE_DESCRIPTION (( 'STEP AP203' ),
    '1' );
FILE_NAME ('969398.step',
    '2021-11-30T13:08:14',
    ( '' ),
    ( '' ),
    'SwSTEP 2.0',
    'SolidWorks 2019',
    '' );
FILE_SCHEMA (( 'CONFIG_CONTROL_DESIGN' ));
ENDSEC;

DATA;
#1 = ORIENTED_EDGE ( 'NONE', *, *, #108, .T. ) ;
#2 = CONICAL_SURFACE ( 'NONE', #110, 1.508999999999997454, 0.7853981633974428389 ) ;
#3 = PERSON_AND_ORGANIZATION_ROLE ( 'design_supplier' ) ;
#4 = AXIS2_PLACEMENT_3D ( 'NONE', #54, #168, #186 ) ;
#5 = DIRECTION ( 'NONE',  ( 0.0000000000000000000, 1.000000000000000000, 0.0000000000000000000 ) ) ;
#6 = PERSON_AND_ORGANIZATION ( #71, #18 ) ;
#7 = LOCAL_TIME ( 14, 8, 14.00000000000000000, #209 ) ;
#8 = PERSON_AND_ORGANIZATION ( #71, #18 ) ;
#9 = FACE_BOUND ( 'NONE', #61, .T. ) ;
#10 = DIRECTION ( 'NONE',  ( -3.491481338843133355E-15, 1.224646799147353207E-16, -1.000000000000000000 ) ) ;
#11 = ORIENTED_EDGE ( 'NONE', *, *, #182, .F. ) ;
#12 = DIRECTION ( 'NONE',  ( 3.491481338843133355E-15, -1.224646799147353207E-16, 1.000000000000000000 ) ) ;
#13 = DIRECTION ( 'NONE',  ( -3.828886569358328444E-31, -1.000000000000000000, -1.077735757937879048E-16 ) ) ;
#14 = CALENDAR_DATE ( 2021, 30, 11 ) ;
#15 = CYLINDRICAL_SURFACE ( 'NONE', #220, 1.508999999999999897 ) ;
#16 = AXIS2_PLACEMENT_3D ( 'NONE', #193, #222, #212 ) ;
#17 = ADVANCED_FACE ( 'NONE', ( #56 ), #157, .F. ) ;
#18 = ORGANIZATION ( 'UNSPECIFIED', 'UNSPECIFIED', '' ) ;
#19 = ADVANCED_FACE ( 'NONE', ( #41, #113 ), #102, .T. ) ;
#20 = MANIFOLD_SOLID_BREP ( 'Corps-Déplacer/Copier1[2]', #32 ) ;
#21 = CALENDAR_DATE ( 2021, 30, 11 ) ;
#22 = CC_DESIGN_PERSON_AND_ORGANIZATION_ASSIGNMENT ( #51, #3, ( #126 ) ) ;
#23 = EDGE_CURVE ( 'NONE', #53, #53, #242, .T. ) ;
#24 = CARTESIAN_POINT ( 'NONE',  ( 1.946500846405046877E-13, 1.249999999999998446, 55.75000000000000000 ) ) ;
#25 = CARTESIAN_POINT ( 'NONE',  ( 7.139590935265443833E-14, -2.504231395660658203E-15, 20.44860115916035070 ) ) ;
#26 = EDGE_LOOP ( 'NONE', ( #216 ) ) ;
#27 = CARTESIAN_POINT ( 'NONE',  ( 6.982962677686266711E-14, 1.131568756018369616E-32, 20.00000000000000000 ) ) ;
#28 = ORIENTED_EDGE ( 'NONE', *, *, #146, .F. ) ;
#29 = AXIS2_PLACEMENT_3D ( 'NONE', #107, #148, #230 ) ;
#30 = EDGE_LOOP ( 'NONE', ( #224 ) ) ;
#31 = CC_DESIGN_DATE_AND_TIME_ASSIGNMENT ( #35, #208, ( #90 ) ) ;
#32 = CLOSED_SHELL ( 'NONE', ( #17, #185, #243, #143 ) ) ;
#33 = CARTESIAN_POINT ( 'NONE',  ( 1.955229549752154679E-13, -6.858022075225178552E-15, 56.00000000000000000 ) ) ;
#34 = APPROVAL ( #199, 'UNSPECIFIED' ) ;
#35 = DATE_AND_TIME ( #204, #188 ) ;
#36 = CARTESIAN_POINT ( 'NONE',  ( 1.955229549752154679E-13, 0.9999999999999985567, 56.00000000000000000 ) ) ;
#37 = CIRCLE ( 'NONE', #74, 1.249999999999996003 ) ;
#38 = COORDINATED_UNIVERSAL_TIME_OFFSET ( 1, 0, .AHEAD. ) ;
#39 = FACE_OUTER_BOUND ( 'NONE', #141, .T. ) ;
#40 = CARTESIAN_POINT ( 'NONE',  ( 6.982962677686266711E-14, 1.508999999999999897, 20.00000000000000000 ) ) ;
#41 = FACE_OUTER_BOUND ( 'NONE', #81, .T. ) ;
#42 = ORIENTED_EDGE ( 'NONE', *, *, #108, .F. ) ;
#43 = EDGE_LOOP ( 'NONE', ( #11 ) ) ;
#44 = CC_DESIGN_SECURITY_CLASSIFICATION ( #90, ( #126 ) ) ;
#45 = CIRCLE ( 'NONE', #192, 1.509000000000002339 ) ;
#46 = CARTESIAN_POINT ( 'NONE',  ( 7.139590935265443833E-14, -2.504231395660658203E-15, 20.44860115916035070 ) ) ;
#47 = APPROVAL ( #232, 'UNSPECIFIED' ) ;
#48 = ADVANCED_FACE ( 'NONE', ( #75, #128 ), #67, .T. ) ;
#49 =( GEOMETRIC_REPRESENTATION_CONTEXT ( 3 ) GLOBAL_UNCERTAINTY_ASSIGNED_CONTEXT ( ( #223 ) ) GLOBAL_UNIT_ASSIGNED_CONTEXT ( ( #145, #83, #89 ) ) REPRESENTATION_CONTEXT ( 'NONE', 'WORKASPACE' ) );
#50 = PERSON_AND_ORGANIZATION_ROLE ( 'creator' ) ;
#51 = PERSON_AND_ORGANIZATION ( #71, #18 ) ;
#52 = EDGE_CURVE ( 'NONE', #132, #132, #147, .T. ) ;
#53 = VERTEX_POINT ( 'NONE', #24 ) ;
#54 = CARTESIAN_POINT ( 'NONE',  ( 1.946500846405046877E-13, -6.827405905246494765E-15, 55.75000000000000000 ) ) ;
#55 = CARTESIAN_POINT ( 'NONE',  ( 8.728703347107833388E-16, 1.508999999999997454, 0.2500000000000000000 ) ) ;
#56 = FACE_OUTER_BOUND ( 'NONE', #64, .T. ) ;
#57 = VERTEX_POINT ( 'NONE', #172 ) ;
#58 = DIRECTION ( 'NONE',  ( 3.491481338843133355E-15, -1.224646799147353207E-16, 1.000000000000000000 ) ) ;
#59 = PERSON_AND_ORGANIZATION_ROLE ( 'design_owner' ) ;
#60 = APPROVAL ( #106, 'UNSPECIFIED' ) ;
#61 = EDGE_LOOP ( 'NONE', ( #28 ) ) ;
#62 = DIRECTION ( 'NONE',  ( -3.491481338843133355E-15, 1.224646799147353207E-16, -1.000000000000000000 ) ) ;
#63 = CIRCLE ( 'NONE', #29, 1.509000000000002339 ) ;
#64 = EDGE_LOOP ( 'NONE', ( #116 ) ) ;
#65 = APPLICATION_PROTOCOL_DEFINITION ( 'international standard', 'config_control_design', 1994, #144 ) ;
#66 = MECHANICAL_CONTEXT ( 'NONE', #124, 'mechanical' ) ;
#67 = CONICAL_SURFACE ( 'NONE', #133, 1.000000000000005551, 0.7853981633974473908 ) ;
#68 = CIRCLE ( 'NONE', #88, 1.259000000000000563 ) ;
#69 = ADVANCED_FACE ( 'NONE', ( #233 ), #125, .F. ) ;
#70 = DIRECTION ( 'NONE',  ( -3.491481338843133355E-15, 1.224646799147353207E-16, -1.000000000000000000 ) ) ;
#71 = PERSON ( 'UNSPECIFIED', 'UNSPECIFIED', 'UNSPECIFIED', ('UNSPECIFIED'), ('UNSPECIFIED'), ('UNSPECIFIED') ) ;
#72 = CALENDAR_DATE ( 2021, 30, 11 ) ;
#73 = CC_DESIGN_PERSON_AND_ORGANIZATION_ASSIGNMENT ( #8, #50, ( #229 ) ) ;
#74 = AXIS2_PLACEMENT_3D ( 'NONE', #46, #123, #5 ) ;
#75 = FACE_OUTER_BOUND ( 'NONE', #195, .T. ) ;
#76 = EDGE_CURVE ( 'NONE', #94, #94, #37, .T. ) ;
#77 = DIRECTION ( 'NONE',  ( 4.275831445896958607E-31, 1.000000000000000000, 1.224646799147353207E-16 ) ) ;
#78 = CALENDAR_DATE ( 2021, 30, 11 ) ;
#79 = CARTESIAN_POINT ( 'NONE',  ( 6.982962677686266711E-14, -2.449293598294706513E-15, 20.00000000000000000 ) ) ;
#80 = CARTESIAN_POINT ( 'NONE',  ( 0.0000000000000000000, 0.0000000000000000000, 0.0000000000000000000 ) ) ;
#81 = EDGE_LOOP ( 'NONE', ( #42 ) ) ;
#82 = DESIGN_CONTEXT ( 'detailed design', #144, 'design' ) ;
#83 =( NAMED_UNIT ( * ) PLANE_ANGLE_UNIT ( ) SI_UNIT ( $, .RADIAN. ) );
#84 = ORIENTED_EDGE ( 'NONE', *, *, #150, .F. ) ;
#85 = FACE_OUTER_BOUND ( 'NONE', #26, .T. ) ;
#86 = DATE_AND_TIME ( #14, #181 ) ;
#87 = DIRECTION ( 'NONE',  ( -3.491481338843133355E-15, 1.224646799147353207E-16, -1.000000000000000000 ) ) ;
#88 = AXIS2_PLACEMENT_3D ( 'NONE', #198, #10, #158 ) ;
#89 =( NAMED_UNIT ( * ) SI_UNIT ( $, .STERADIAN. ) SOLID_ANGLE_UNIT ( ) );
#90 = SECURITY_CLASSIFICATION ( '', '', #149 ) ;
#91 = DATE_TIME_ROLE ( 'creation_date' ) ;
#92 = DATE_AND_TIME ( #21, #165 ) ;
#93 = PRODUCT_DEFINITION_SHAPE ( 'NONE', 'NONE',  #229 ) ;
#94 = VERTEX_POINT ( 'NONE', #156 ) ;
#95 = AXIS2_PLACEMENT_3D ( 'NONE', #166, #70, #206 ) ;
#96 = CARTESIAN_POINT ( 'NONE',  ( 8.728703347107827472E-16, -3.061616997868381169E-17, 0.2499999999999998335 ) ) ;
#97 = DIRECTION ( 'NONE',  ( -3.491481338843133355E-15, 1.224646799147353207E-16, -1.000000000000000000 ) ) ;
#98 = DIRECTION ( 'NONE',  ( 3.491481338843133355E-15, -1.224646799147353207E-16, 1.000000000000000000 ) ) ;
#99 = FACE_OUTER_BOUND ( 'NONE', #236, .T. ) ;
#100 = SHAPE_DEFINITION_REPRESENTATION ( #93, #163 ) ;
#101 = ORIENTED_EDGE ( 'NONE', *, *, #23, .F. ) ;
#102 = CONICAL_SURFACE ( 'NONE', #196, 1.249999999999996003, 0.5235987755982978165 ) ;
#103 = EDGE_LOOP ( 'NONE', ( #139 ) ) ;
#104 = CC_DESIGN_PERSON_AND_ORGANIZATION_ASSIGNMENT ( #6, #151, ( #126 ) ) ;
#105 = CC_DESIGN_APPROVAL ( #34, ( #229 ) ) ;
#106 = APPROVAL_STATUS ( 'not_yet_approved' ) ;
#107 = CARTESIAN_POINT ( 'NONE',  ( 6.982962677686266711E-14, -2.449293598294706513E-15, 20.00000000000000000 ) ) ;
#108 = EDGE_CURVE ( 'NONE', #57, #57, #63, .T. ) ;
#109 = PERSON_AND_ORGANIZATION_ROLE ( 'classification_officer' ) ;
#110 = AXIS2_PLACEMENT_3D ( 'NONE', #140, #98, #13 ) ;
#111 = CYLINDRICAL_SURFACE ( 'NONE', #214, 1.250000000000000666 ) ;
#112 = DATE_AND_TIME ( #72, #142 ) ;
#113 = FACE_BOUND ( 'NONE', #178, .T. ) ;
#114 = FACE_OUTER_BOUND ( 'NONE', #203, .T. ) ;
#115 = PERSON_AND_ORGANIZATION ( #71, #18 ) ;
#116 = ORIENTED_EDGE ( 'NONE', *, *, #146, .T. ) ;
#117 = FACE_OUTER_BOUND ( 'NONE', #103, .T. ) ;
#118 = ORIENTED_EDGE ( 'NONE', *, *, #150, .T. ) ;
#119 = ORIENTED_EDGE ( 'NONE', *, *, #76, .T. ) ;
#120 = DIRECTION ( 'NONE',  ( 0.0000000000000000000, 0.0000000000000000000, 1.000000000000000000 ) ) ;
#121 = PERSON_AND_ORGANIZATION ( #71, #18 ) ;
#122 = AXIS2_PLACEMENT_3D ( 'NONE', #96, #215, #136 ) ;
#123 = DIRECTION ( 'NONE',  ( -3.491481338843133355E-15, 1.224646799147353207E-16, -1.000000000000000000 ) ) ;
#124 = APPLICATION_CONTEXT ( 'configuration controlled 3d designs of mechanical parts and assemblies' ) ;
#125 = PLANE ( 'NONE',  #231 ) ;
#126 = PRODUCT_DEFINITION_FORMATION_WITH_SPECIFIED_SOURCE ( 'ANY', '', #138, .NOT_KNOWN. ) ;
#127 = PRODUCT_RELATED_PRODUCT_CATEGORY ( 'detail', '', ( #138 ) ) ;
#128 = FACE_BOUND ( 'NONE', #175, .T. ) ;
#129 = APPROVAL_ROLE ( '' ) ;
#130 = CC_DESIGN_DATE_AND_TIME_ASSIGNMENT ( #169, #91, ( #229 ) ) ;
#131 = CARTESIAN_POINT ( 'NONE',  ( 1.955229549752154679E-13, 7.498798913309223722E-33, 56.00000000000000000 ) ) ;
#132 = VERTEX_POINT ( 'NONE', #36 ) ;
#133 = AXIS2_PLACEMENT_3D ( 'NONE', #33, #184, #153 ) ;
#134 = PLANE ( 'NONE',  #180 ) ;
#135 = CARTESIAN_POINT ( 'NONE',  ( 1.135641495829896858E-30, 1.259000000000000563, 3.252606517456513302E-16 ) ) ;
#136 = DIRECTION ( 'NONE',  ( 3.828886569358328444E-31, 1.000000000000000000, 1.077735757937879048E-16 ) ) ;
#137 = DIRECTION ( 'NONE',  ( 1.000000000000000000, 0.0000000000000000000, 0.0000000000000000000 ) ) ;
#138 = PRODUCT ( '969398', '969398', '', ( #66 ) ) ;
#139 = ORIENTED_EDGE ( 'NONE', *, *, #23, .T. ) ;
#140 = CARTESIAN_POINT ( 'NONE',  ( 8.728703347107827472E-16, -3.061616997868381169E-17, 0.2499999999999998335 ) ) ;
#141 = EDGE_LOOP ( 'NONE', ( #1 ) ) ;
#142 = LOCAL_TIME ( 14, 8, 14.00000000000000000, #38 ) ;
#143 = ADVANCED_FACE ( 'NONE', ( #174 ), #134, .T. ) ;
#144 = APPLICATION_CONTEXT ( 'configuration controlled 3d designs of mechanical parts and assemblies' ) ;
#145 =( LENGTH_UNIT ( ) NAMED_UNIT ( * ) SI_UNIT ( .MILLI., .METRE. ) );
#146 = EDGE_CURVE ( 'NONE', #194, #194, #68, .T. ) ;
#147 = CIRCLE ( 'NONE', #95, 1.000000000000005551 ) ;
#148 = DIRECTION ( 'NONE',  ( -3.491481338843133355E-15, 1.224646799147353207E-16, -1.000000000000000000 ) ) ;
#149 = SECURITY_CLASSIFICATION_LEVEL ( 'unclassified' ) ;
#150 = EDGE_CURVE ( 'NONE', #155, #155, #170, .T. ) ;
#151 = PERSON_AND_ORGANIZATION_ROLE ( 'creator' ) ;
#152 = APPROVAL_PERSON_ORGANIZATION ( #115, #34, #162 ) ;
#153 = DIRECTION ( 'NONE',  ( 0.0000000000000000000, 1.000000000000000000, 0.0000000000000000000 ) ) ;
#154 = APPROVAL_DATE_TIME ( #112, #60 ) ;
#155 = VERTEX_POINT ( 'NONE', #55 ) ;
#156 = CARTESIAN_POINT ( 'NONE',  ( 7.139590935265443833E-14, 1.249999999999993339, 20.44860115916035070 ) ) ;
#157 = PLANE ( 'NONE',  #207 ) ;
#158 = DIRECTION ( 'NONE',  ( 4.275831445896958607E-31, 1.000000000000000000, 1.224646799147353207E-16 ) ) ;
#159 = APPROVAL_PERSON_ORGANIZATION ( #235, #60, #213 ) ;
#160 = PERSON_AND_ORGANIZATION ( #71, #18 ) ;
#161 = CARTESIAN_POINT ( 'NONE',  ( 0.0000000000000000000, 0.0000000000000000000, 0.0000000000000000000 ) ) ;
#162 = APPROVAL_ROLE ( '' ) ;
#163 = ADVANCED_BREP_SHAPE_REPRESENTATION ( '969398', ( #183, #20, #205 ), #49 ) ;
#164 = APPLICATION_PROTOCOL_DEFINITION ( 'international standard', 'config_control_design', 1994, #124 ) ;
#165 = LOCAL_TIME ( 14, 8, 14.00000000000000000, #190 ) ;
#166 = CARTESIAN_POINT ( 'NONE',  ( 1.955229549752154679E-13, -6.858022075225178552E-15, 56.00000000000000000 ) ) ;
#167 = CC_DESIGN_PERSON_AND_ORGANIZATION_ASSIGNMENT ( #160, #59, ( #138 ) ) ;
#168 = DIRECTION ( 'NONE',  ( -3.491481338843133355E-15, 1.224646799147353207E-16, -1.000000000000000000 ) ) ;
#169 = DATE_AND_TIME ( #78, #7 ) ;
#170 = CIRCLE ( 'NONE', #122, 1.508999999999997454 ) ;
#171 = DIRECTION ( 'NONE',  ( -3.491481338843133355E-15, 1.224646799147353207E-16, -1.000000000000000000 ) ) ;
#172 = CARTESIAN_POINT ( 'NONE',  ( 6.982962677686266711E-14, 1.508999999999999897, 20.00000000000000000 ) ) ;
#173 = CC_DESIGN_APPROVAL ( #60, ( #126 ) ) ;
#174 = FACE_OUTER_BOUND ( 'NONE', #43, .T. ) ;
#175 = EDGE_LOOP ( 'NONE', ( #197 ) ) ;
#176 = DIRECTION ( 'NONE',  ( 0.0000000000000000000, 1.000000000000000000, 0.0000000000000000000 ) ) ;
#177 = COORDINATED_UNIVERSAL_TIME_OFFSET ( 1, 0, .AHEAD. ) ;
#178 = EDGE_LOOP ( 'NONE', ( #119 ) ) ;
#179 = DIRECTION ( 'NONE',  ( -4.275831445896958607E-31, -1.000000000000000000, -1.224646799147353207E-16 ) ) ;
#180 = AXIS2_PLACEMENT_3D ( 'NONE', #27, #12, #179 ) ;
#181 = LOCAL_TIME ( 14, 8, 14.00000000000000000, #177 ) ;
#182 = EDGE_CURVE ( 'NONE', #217, #217, #45, .T. ) ;
#183 = MANIFOLD_SOLID_BREP ( 'Corps-Déplacer/Copier1[1]', #228 ) ;
#184 = DIRECTION ( 'NONE',  ( -3.491481338843133355E-15, 1.224646799147353207E-16, -1.000000000000000000 ) ) ;
#185 = ADVANCED_FACE ( 'NONE', ( #9, #114 ), #2, .T. ) ;
#186 = DIRECTION ( 'NONE',  ( 0.0000000000000000000, 1.000000000000000000, 0.0000000000000000000 ) ) ;
#187 = PERSON_AND_ORGANIZATION ( #71, #18 ) ;
#188 = LOCAL_TIME ( 14, 8, 14.00000000000000000, #211 ) ;
#189 = CC_DESIGN_PERSON_AND_ORGANIZATION_ASSIGNMENT ( #121, #109, ( #90 ) ) ;
#190 = COORDINATED_UNIVERSAL_TIME_OFFSET ( 1, 0, .AHEAD. ) ;
#191 = ADVANCED_FACE ( 'NONE', ( #39 ), #241, .F. ) ;
#192 = AXIS2_PLACEMENT_3D ( 'NONE', #79, #239, #219 ) ;
#193 = CARTESIAN_POINT ( 'NONE',  ( 6.982962677686266711E-14, 1.131568756018369616E-32, 20.00000000000000000 ) ) ;
#194 = VERTEX_POINT ( 'NONE', #135 ) ;
#195 = EDGE_LOOP ( 'NONE', ( #101 ) ) ;
#196 = AXIS2_PLACEMENT_3D ( 'NONE', #25, #97, #176 ) ;
#197 = ORIENTED_EDGE ( 'NONE', *, *, #52, .T. ) ;
#198 = CARTESIAN_POINT ( 'NONE',  ( 5.973143167914695818E-31, -2.095096594117659290E-32, 1.710776197329994961E-16 ) ) ;
#199 = APPROVAL_STATUS ( 'not_yet_approved' ) ;
#200 = DIRECTION ( 'NONE',  ( 4.275831445896957731E-31, 1.000000000000000000, 1.224646799147353454E-16 ) ) ;
#201 = APPROVAL_DATE_TIME ( #92, #47 ) ;
#202 = EDGE_LOOP ( 'NONE', ( #240 ) ) ;
#203 = EDGE_LOOP ( 'NONE', ( #118 ) ) ;
#204 = CALENDAR_DATE ( 2021, 30, 11 ) ;
#205 = AXIS2_PLACEMENT_3D ( 'NONE', #221, #120, #137 ) ;
#206 = DIRECTION ( 'NONE',  ( 0.0000000000000000000, 1.000000000000000000, 0.0000000000000000000 ) ) ;
#207 = AXIS2_PLACEMENT_3D ( 'NONE', #238, #58, #218 ) ;
#208 = DATE_TIME_ROLE ( 'classification_date' ) ;
#209 = COORDINATED_UNIVERSAL_TIME_OFFSET ( 1, 0, .AHEAD. ) ;
#210 = APPROVAL_PERSON_ORGANIZATION ( #187, #47, #129 ) ;
#211 = COORDINATED_UNIVERSAL_TIME_OFFSET ( 1, 0, .AHEAD. ) ;
#212 = DIRECTION ( 'NONE',  ( -4.275831445896958607E-31, -1.000000000000000000, -1.224646799147353207E-16 ) ) ;
#213 = APPROVAL_ROLE ( '' ) ;
#214 = AXIS2_PLACEMENT_3D ( 'NONE', #161, #62, #200 ) ;
#215 = DIRECTION ( 'NONE',  ( -3.491481338843133355E-15, 1.224646799147353207E-16, -1.000000000000000000 ) ) ;
#216 = ORIENTED_EDGE ( 'NONE', *, *, #76, .F. ) ;
#217 = VERTEX_POINT ( 'NONE', #40 ) ;
#218 = DIRECTION ( 'NONE',  ( -4.275831445896958607E-31, -1.000000000000000000, -1.224646799147353207E-16 ) ) ;
#219 = DIRECTION ( 'NONE',  ( 0.0000000000000000000, 1.000000000000000000, 0.0000000000000000000 ) ) ;
#220 = AXIS2_PLACEMENT_3D ( 'NONE', #80, #87, #234 ) ;
#221 = CARTESIAN_POINT ( 'NONE',  ( 0.0000000000000000000, 0.0000000000000000000, 0.0000000000000000000 ) ) ;
#222 = DIRECTION ( 'NONE',  ( 3.491481338843133355E-15, -1.224646799147353207E-16, 1.000000000000000000 ) ) ;
#223 = UNCERTAINTY_MEASURE_WITH_UNIT (LENGTH_MEASURE( 1.000000000000000082E-05 ), #145, 'distance_accuracy_value', 'NONE');
#224 = ORIENTED_EDGE ( 'NONE', *, *, #182, .T. ) ;
#225 = ADVANCED_FACE ( 'NONE', ( #85, #117 ), #111, .T. ) ;
#226 = APPROVAL_DATE_TIME ( #86, #34 ) ;
#227 = CC_DESIGN_APPROVAL ( #47, ( #90 ) ) ;
#228 = CLOSED_SHELL ( 'NONE', ( #191, #19, #225, #48, #69 ) ) ;
#229 = PRODUCT_DEFINITION ( 'UNKNOWN', '', #126, #82 ) ;
#230 = DIRECTION ( 'NONE',  ( 0.0000000000000000000, 1.000000000000000000, 0.0000000000000000000 ) ) ;
#231 = AXIS2_PLACEMENT_3D ( 'NONE', #131, #171, #77 ) ;
#232 = APPROVAL_STATUS ( 'not_yet_approved' ) ;
#233 = FACE_OUTER_BOUND ( 'NONE', #202, .T. ) ;
#234 = DIRECTION ( 'NONE',  ( 4.275831445896958607E-31, 1.000000000000000000, 1.224646799147353207E-16 ) ) ;
#235 = PERSON_AND_ORGANIZATION ( #71, #18 ) ;
#236 = EDGE_LOOP ( 'NONE', ( #84 ) ) ;
#237 = FACE_OUTER_BOUND ( 'NONE', #30, .T. ) ;
#238 = CARTESIAN_POINT ( 'NONE',  ( 2.986571583957347909E-31, -1.047548297058829645E-32, 8.553880986649974803E-17 ) ) ;
#239 = DIRECTION ( 'NONE',  ( -3.491481338843133355E-15, 1.224646799147353207E-16, -1.000000000000000000 ) ) ;
#240 = ORIENTED_EDGE ( 'NONE', *, *, #52, .F. ) ;
#241 = PLANE ( 'NONE',  #16 ) ;
#242 = CIRCLE ( 'NONE', #4, 1.250000000000005329 ) ;
#243 = ADVANCED_FACE ( 'NONE', ( #99, #237 ), #15, .T. ) ;
ENDSEC;
END-ISO-10303-21;
