ISO-10303-21;
HEADER;
FILE_DESCRIPTION (( 'STEP AP203' ),
    '1' );
FILE_NAME ('969382.step',
    '2021-11-30T13:08:14',
    ( '' ),
    ( '' ),
    'SwSTEP 2.0',
    'SolidWorks 2019',
    '' );
FILE_SCHEMA (( 'CONFIG_CONTROL_DESIGN' ));
ENDSEC;

DATA;
#1 = VERTEX_POINT ( 'NONE', #229 ) ;
#2 = EDGE_CURVE ( 'NONE', #170, #170, #144, .T. ) ;
#3 = FACE_OUTER_BOUND ( 'NONE', #209, .T. ) ;
#4 = CIRCLE ( 'NONE', #165, 1.249999999999996003 ) ;
#5 = PERSON_AND_ORGANIZATION ( #102, #171 ) ;
#6 = PLANE ( 'NONE',  #43 ) ;
#7 = MECHANICAL_CONTEXT ( 'NONE', #181, 'mechanical' ) ;
#8 = AXIS2_PLACEMENT_3D ( 'NONE', #21, #142, #139 ) ;
#9 = CALENDAR_DATE ( 2021, 30, 11 ) ;
#10 = CARTESIAN_POINT ( 'NONE',  ( 0.0000000000000000000, 0.0000000000000000000, 0.0000000000000000000 ) ) ;
#11 = ORIENTED_EDGE ( 'NONE', *, *, #223, .T. ) ;
#12 = ADVANCED_FACE ( 'NONE', ( #127, #129 ), #113, .T. ) ;
#13 = PLANE ( 'NONE',  #236 ) ;
#14 = SECURITY_CLASSIFICATION_LEVEL ( 'unclassified' ) ;
#15 = FACE_OUTER_BOUND ( 'NONE', #190, .T. ) ;
#16 = APPROVAL_ROLE ( '' ) ;
#17 = APPROVAL_PERSON_ORGANIZATION ( #179, #99, #62 ) ;
#18 = CIRCLE ( 'NONE', #38, 1.503499999999997616 ) ;
#19 = DIRECTION ( 'NONE',  ( 4.275831445896957731E-31, 1.000000000000000000, 1.224646799147353454E-16 ) ) ;
#20 = FACE_BOUND ( 'NONE', #89, .T. ) ;
#21 = CARTESIAN_POINT ( 'NONE',  ( 7.136264852575538515E-14, -2.503064762898060812E-15, 20.43907487971872428 ) ) ;
#22 = APPROVAL_STATUS ( 'not_yet_approved' ) ;
#23 = CC_DESIGN_APPROVAL ( #99, ( #37 ) ) ;
#24 = CARTESIAN_POINT ( 'NONE',  ( 0.0000000000000000000, 0.0000000000000000000, 0.0000000000000000000 ) ) ;
#25 = AXIS2_PLACEMENT_3D ( 'NONE', #118, #211, #19 ) ;
#26 = CC_DESIGN_PERSON_AND_ORGANIZATION_ASSIGNMENT ( #166, #186, ( #208 ) ) ;
#27 = DIRECTION ( 'NONE',  ( 0.0000000000000000000, 1.000000000000000000, 0.0000000000000000000 ) ) ;
#28 = DIRECTION ( 'NONE',  ( -3.491481338843133355E-15, 1.224646799147353207E-16, -1.000000000000000000 ) ) ;
#29 = EDGE_LOOP ( 'NONE', ( #168 ) ) ;
#30 = EDGE_CURVE ( 'NONE', #1, #1, #67, .T. ) ;
#31 = AXIS2_PLACEMENT_3D ( 'NONE', #46, #91, #167 ) ;
#32 = CIRCLE ( 'NONE', #138, 1.503499999999998504 ) ;
#33 = ORIENTED_EDGE ( 'NONE', *, *, #114, .T. ) ;
#34 = ORIENTED_EDGE ( 'NONE', *, *, #2, .T. ) ;
#35 = DIRECTION ( 'NONE',  ( 3.842893138118867154E-31, 1.000000000000000000, 1.081678256553547883E-16 ) ) ;
#36 = DATE_TIME_ROLE ( 'classification_date' ) ;
#37 = PRODUCT_DEFINITION ( 'UNKNOWN', '', #208, #227 ) ;
#38 = AXIS2_PLACEMENT_3D ( 'NONE', #197, #175, #35 ) ;
#39 = VERTEX_POINT ( 'NONE', #41 ) ;
#40 = PERSON_AND_ORGANIZATION ( #102, #171 ) ;
#41 = CARTESIAN_POINT ( 'NONE',  ( 0.0000000000000000000, 1.253500000000000503, 0.0000000000000000000 ) ) ;
#42 =( NAMED_UNIT ( * ) PLANE_ANGLE_UNIT ( ) SI_UNIT ( $, .RADIAN. ) );
#43 = AXIS2_PLACEMENT_3D ( 'NONE', #103, #52, #120 ) ;
#44 = CC_DESIGN_PERSON_AND_ORGANIZATION_ASSIGNMENT ( #184, #93, ( #50 ) ) ;
#45 = COORDINATED_UNIVERSAL_TIME_OFFSET ( 1, 0, .AHEAD. ) ;
#46 = CARTESIAN_POINT ( 'NONE',  ( 6.982962677686265448E-14, -2.449293598294706119E-15, 19.99999999999999645 ) ) ;
#47 = EDGE_LOOP ( 'NONE', ( #92 ) ) ;
#48 = DIRECTION ( 'NONE',  ( -3.491481338843133355E-15, 1.224646799147353207E-16, -1.000000000000000000 ) ) ;
#49 = FACE_OUTER_BOUND ( 'NONE', #80, .T. ) ;
#50 = SECURITY_CLASSIFICATION ( '', '', #14 ) ;
#51 = EDGE_LOOP ( 'NONE', ( #221 ) ) ;
#52 = DIRECTION ( 'NONE',  ( 3.491481338843133355E-15, -1.224646799147353207E-16, 1.000000000000000000 ) ) ;
#53 = CALENDAR_DATE ( 2021, 30, 11 ) ;
#54 = FACE_OUTER_BOUND ( 'NONE', #238, .T. ) ;
#55 = COORDINATED_UNIVERSAL_TIME_OFFSET ( 1, 0, .AHEAD. ) ;
#56 =( LENGTH_UNIT ( ) NAMED_UNIT ( * ) SI_UNIT ( .MILLI., .METRE. ) );
#57 = ADVANCED_FACE ( 'NONE', ( #108, #49 ), #107, .T. ) ;
#58 = DATE_AND_TIME ( #213, #194 ) ;
#59 = APPLICATION_CONTEXT ( 'configuration controlled 3d designs of mechanical parts and assemblies' ) ;
#60 = DIRECTION ( 'NONE',  ( 4.275831445896958607E-31, 1.000000000000000000, 1.224646799147353207E-16 ) ) ;
#61 = LOCAL_TIME ( 14, 8, 14.00000000000000000, #45 ) ;
#62 = APPROVAL_ROLE ( '' ) ;
#63 = CARTESIAN_POINT ( 'NONE',  ( 7.136264852575538515E-14, 1.249999999999993339, 20.43907487971872428 ) ) ;
#64 = COORDINATED_UNIVERSAL_TIME_OFFSET ( 1, 0, .AHEAD. ) ;
#65 = VERTEX_POINT ( 'NONE', #63 ) ;
#66 = PERSON_AND_ORGANIZATION_ROLE ( 'creator' ) ;
#67 = CIRCLE ( 'NONE', #235, 1.250000000000005329 ) ;
#68 = APPROVAL ( #22, 'UNSPECIFIED' ) ;
#69 = EDGE_CURVE ( 'NONE', #214, #214, #32, .T. ) ;
#70 = PERSON_AND_ORGANIZATION_ROLE ( 'design_owner' ) ;
#71 = EDGE_LOOP ( 'NONE', ( #34 ) ) ;
#72 = ORIENTED_EDGE ( 'NONE', *, *, #137, .F. ) ;
#73 = EDGE_LOOP ( 'NONE', ( #72 ) ) ;
#74 = ADVANCED_FACE ( 'NONE', ( #185 ), #13, .T. ) ;
#75 = DIRECTION ( 'NONE',  ( 3.491481338843133355E-15, -1.224646799147353207E-16, 1.000000000000000000 ) ) ;
#76 = CARTESIAN_POINT ( 'NONE',  ( 6.982962677686265448E-14, 4.361591546183138863E-31, 19.99999999999999645 ) ) ;
#77 = PLANE ( 'NONE',  #128 ) ;
#78 = LOCAL_TIME ( 14, 8, 14.00000000000000000, #177 ) ;
#79 = DIRECTION ( 'NONE',  ( -3.491481338843133355E-15, 1.224646799147353207E-16, -1.000000000000000000 ) ) ;
#80 = EDGE_LOOP ( 'NONE', ( #239 ) ) ;
#81 = DIRECTION ( 'NONE',  ( -3.491481338843133355E-15, 1.224646799147353207E-16, -1.000000000000000000 ) ) ;
#82 = AXIS2_PLACEMENT_3D ( 'NONE', #94, #81, #105 ) ;
#83 = CC_DESIGN_PERSON_AND_ORGANIZATION_ASSIGNMENT ( #40, #122, ( #37 ) ) ;
#84 = CALENDAR_DATE ( 2021, 30, 11 ) ;
#85 = APPROVAL_DATE_TIME ( #215, #99 ) ;
#86 = APPROVAL_PERSON_ORGANIZATION ( #136, #152, #16 ) ;
#87 = CALENDAR_DATE ( 2021, 30, 11 ) ;
#88 = EDGE_LOOP ( 'NONE', ( #150 ) ) ;
#89 = EDGE_LOOP ( 'NONE', ( #219 ) ) ;
#90 = CARTESIAN_POINT ( 'NONE',  ( 6.982962677686265448E-14, -2.449293598294706119E-15, 19.99999999999999645 ) ) ;
#91 = DIRECTION ( 'NONE',  ( -3.491481338843133355E-15, 1.224646799147353207E-16, -1.000000000000000000 ) ) ;
#92 = ORIENTED_EDGE ( 'NONE', *, *, #119, .F. ) ;
#93 = PERSON_AND_ORGANIZATION_ROLE ( 'classification_officer' ) ;
#94 = CARTESIAN_POINT ( 'NONE',  ( 1.955229549752154679E-13, -6.858022075225178552E-15, 56.00000000000000000 ) ) ;
#95 = COORDINATED_UNIVERSAL_TIME_OFFSET ( 1, 0, .AHEAD. ) ;
#96 = FACE_BOUND ( 'NONE', #151, .T. ) ;
#97 = UNCERTAINTY_MEASURE_WITH_UNIT (LENGTH_MEASURE( 1.000000000000000082E-05 ), #56, 'distance_accuracy_value', 'NONE');
#98 = DIRECTION ( 'NONE',  ( -4.275831445896958607E-31, -1.000000000000000000, -1.224646799147353207E-16 ) ) ;
#99 = APPROVAL ( #148, 'UNSPECIFIED' ) ;
#100 = CC_DESIGN_APPROVAL ( #68, ( #208 ) ) ;
#101 = LOCAL_TIME ( 14, 8, 14.00000000000000000, #95 ) ;
#102 = PERSON ( 'UNSPECIFIED', 'UNSPECIFIED', 'UNSPECIFIED', ('UNSPECIFIED'), ('UNSPECIFIED'), ('UNSPECIFIED') ) ;
#103 = CARTESIAN_POINT ( 'NONE',  ( -2.679877358715919961E-31, 9.399744437833197675E-33, -7.675473813656039876E-17 ) ) ;
#104 = APPROVAL_ROLE ( '' ) ;
#105 = DIRECTION ( 'NONE',  ( 0.0000000000000000000, 1.000000000000000000, 0.0000000000000000000 ) ) ;
#106 = CIRCLE ( 'NONE', #174, 1.253500000000000503 ) ;
#107 = CONICAL_SURFACE ( 'NONE', #146, 1.503499999999997616, 0.7853981633974426169 ) ;
#108 = FACE_BOUND ( 'NONE', #222, .T. ) ;
#109 = DIRECTION ( 'NONE',  ( 0.0000000000000000000, 1.000000000000000000, 0.0000000000000000000 ) ) ;
#110 = DIRECTION ( 'NONE',  ( 4.275831445896958607E-31, 1.000000000000000000, 1.224646799147353207E-16 ) ) ;
#111 = CLOSED_SHELL ( 'NONE', ( #124, #240, #143, #157, #130 ) ) ;
#112 = ADVANCED_FACE ( 'NONE', ( #3 ), #6, .F. ) ;
#113 = CYLINDRICAL_SURFACE ( 'NONE', #207, 1.503499999999998060 ) ;
#114 = EDGE_CURVE ( 'NONE', #39, #39, #106, .T. ) ;
#115 = ORIENTED_EDGE ( 'NONE', *, *, #2, .F. ) ;
#116 = FACE_OUTER_BOUND ( 'NONE', #47, .T. ) ;
#117 = MANIFOLD_SOLID_BREP ( 'Corps-Déplacer/Copier1[1]', #111 ) ;
#118 = CARTESIAN_POINT ( 'NONE',  ( 0.0000000000000000000, 0.0000000000000000000, 0.0000000000000000000 ) ) ;
#119 = EDGE_CURVE ( 'NONE', #65, #65, #4, .T. ) ;
#120 = DIRECTION ( 'NONE',  ( -4.275831445896958607E-31, -1.000000000000000000, -1.224646799147353207E-16 ) ) ;
#121 = DATE_AND_TIME ( #53, #101 ) ;
#122 = PERSON_AND_ORGANIZATION_ROLE ( 'creator' ) ;
#123 = CARTESIAN_POINT ( 'NONE',  ( 8.728703347107833388E-16, 1.503499999999997616, 0.2500000000000000000 ) ) ;
#124 = ADVANCED_FACE ( 'NONE', ( #161 ), #224, .F. ) ;
#125 = CARTESIAN_POINT ( 'NONE',  ( 1.955229549752154679E-13, 0.9999999999999985567, 56.00000000000000000 ) ) ;
#126 = CONICAL_SURFACE ( 'NONE', #8, 1.249999999999996003, 0.5235987755982879355 ) ;
#127 = FACE_OUTER_BOUND ( 'NONE', #73, .T. ) ;
#128 = AXIS2_PLACEMENT_3D ( 'NONE', #217, #210, #60 ) ;
#129 = FACE_OUTER_BOUND ( 'NONE', #206, .T. ) ;
#130 = ADVANCED_FACE ( 'NONE', ( #163 ), #77, .F. ) ;
#131 = CARTESIAN_POINT ( 'NONE',  ( 6.982962677686265448E-14, 4.361591546183138863E-31, 19.99999999999999645 ) ) ;
#132 = CONICAL_SURFACE ( 'NONE', #82, 1.000000000000005551, 0.7853981633974473908 ) ;
#133 = CARTESIAN_POINT ( 'NONE',  ( 7.136264852575538515E-14, -2.503064762898060812E-15, 20.43907487971872428 ) ) ;
#134 = DIRECTION ( 'NONE',  ( 0.0000000000000000000, 1.000000000000000000, 0.0000000000000000000 ) ) ;
#135 = LOCAL_TIME ( 14, 8, 14.00000000000000000, #64 ) ;
#136 = PERSON_AND_ORGANIZATION ( #102, #171 ) ;
#137 = EDGE_CURVE ( 'NONE', #216, #216, #18, .T. ) ;
#138 = AXIS2_PLACEMENT_3D ( 'NONE', #90, #28, #109 ) ;
#139 = DIRECTION ( 'NONE',  ( 0.0000000000000000000, 1.000000000000000000, 0.0000000000000000000 ) ) ;
#140 = APPLICATION_PROTOCOL_DEFINITION ( 'international standard', 'config_control_design', 1994, #59 ) ;
#141 = CARTESIAN_POINT ( 'NONE',  ( -5.359754717431839923E-31, 1.879948887566639535E-32, -1.535094762731207975E-16 ) ) ;
#142 = DIRECTION ( 'NONE',  ( -3.491481338843133355E-15, 1.224646799147353207E-16, -1.000000000000000000 ) ) ;
#143 = ADVANCED_FACE ( 'NONE', ( #116, #54 ), #191, .T. ) ;
#144 = CIRCLE ( 'NONE', #31, 1.503499999999998504 ) ;
#145 = CC_DESIGN_PERSON_AND_ORGANIZATION_ASSIGNMENT ( #5, #70, ( #232 ) ) ;
#146 = AXIS2_PLACEMENT_3D ( 'NONE', #241, #183, #189 ) ;
#147 =( NAMED_UNIT ( * ) SI_UNIT ( $, .STERADIAN. ) SOLID_ANGLE_UNIT ( ) );
#148 = APPROVAL_STATUS ( 'not_yet_approved' ) ;
#149 = PRODUCT_RELATED_PRODUCT_CATEGORY ( 'detail', '', ( #232 ) ) ;
#150 = ORIENTED_EDGE ( 'NONE', *, *, #69, .F. ) ;
#151 = EDGE_LOOP ( 'NONE', ( #11 ) ) ;
#152 = APPROVAL ( #228, 'UNSPECIFIED' ) ;
#153 = ORIENTED_EDGE ( 'NONE', *, *, #30, .T. ) ;
#154 = ORIENTED_EDGE ( 'NONE', *, *, #114, .F. ) ;
#155 = CC_DESIGN_SECURITY_CLASSIFICATION ( #50, ( #208 ) ) ;
#156 = DIRECTION ( 'NONE',  ( 0.0000000000000000000, 1.000000000000000000, 0.0000000000000000000 ) ) ;
#157 = ADVANCED_FACE ( 'NONE', ( #173, #96 ), #132, .T. ) ;
#158 = DIRECTION ( 'NONE',  ( 3.491481338843133355E-15, -1.224646799147353207E-16, 1.000000000000000000 ) ) ;
#159 = AXIS2_PLACEMENT_3D ( 'NONE', #225, #193, #134 ) ;
#160 = DIRECTION ( 'NONE',  ( 1.000000000000000000, 0.0000000000000000000, 0.0000000000000000000 ) ) ;
#161 = FACE_OUTER_BOUND ( 'NONE', #71, .T. ) ;
#162 = DATE_AND_TIME ( #84, #78 ) ;
#163 = FACE_OUTER_BOUND ( 'NONE', #29, .T. ) ;
#164 = DATE_AND_TIME ( #87, #61 ) ;
#165 = AXIS2_PLACEMENT_3D ( 'NONE', #133, #79, #156 ) ;
#166 = PERSON_AND_ORGANIZATION ( #102, #171 ) ;
#167 = DIRECTION ( 'NONE',  ( 0.0000000000000000000, 1.000000000000000000, 0.0000000000000000000 ) ) ;
#168 = ORIENTED_EDGE ( 'NONE', *, *, #223, .F. ) ;
#169 = ADVANCED_BREP_SHAPE_REPRESENTATION ( '969382', ( #117, #198, #212 ), #187 ) ;
#170 = VERTEX_POINT ( 'NONE', #233 ) ;
#171 = ORGANIZATION ( 'UNSPECIFIED', 'UNSPECIFIED', '' ) ;
#172 = DIRECTION ( 'NONE',  ( 4.275831445896958607E-31, 1.000000000000000000, 1.224646799147353207E-16 ) ) ;
#173 = FACE_OUTER_BOUND ( 'NONE', #51, .T. ) ;
#174 = AXIS2_PLACEMENT_3D ( 'NONE', #141, #230, #172 ) ;
#175 = DIRECTION ( 'NONE',  ( -3.491481338843133355E-15, 1.224646799147353207E-16, -1.000000000000000000 ) ) ;
#176 = CIRCLE ( 'NONE', #159, 1.000000000000005551 ) ;
#177 = COORDINATED_UNIVERSAL_TIME_OFFSET ( 1, 0, .AHEAD. ) ;
#178 = VERTEX_POINT ( 'NONE', #125 ) ;
#179 = PERSON_AND_ORGANIZATION ( #102, #171 ) ;
#180 = SHAPE_DEFINITION_REPRESENTATION ( #196, #169 ) ;
#181 = APPLICATION_CONTEXT ( 'configuration controlled 3d designs of mechanical parts and assemblies' ) ;
#182 = APPLICATION_PROTOCOL_DEFINITION ( 'international standard', 'config_control_design', 1994, #181 ) ;
#183 = DIRECTION ( 'NONE',  ( 3.491481338843133355E-15, -1.224646799147353207E-16, 1.000000000000000000 ) ) ;
#184 = PERSON_AND_ORGANIZATION ( #102, #171 ) ;
#185 = FACE_OUTER_BOUND ( 'NONE', #88, .T. ) ;
#186 = PERSON_AND_ORGANIZATION_ROLE ( 'design_supplier' ) ;
#187 =( GEOMETRIC_REPRESENTATION_CONTEXT ( 3 ) GLOBAL_UNCERTAINTY_ASSIGNED_CONTEXT ( ( #97 ) ) GLOBAL_UNIT_ASSIGNED_CONTEXT ( ( #56, #42, #147 ) ) REPRESENTATION_CONTEXT ( 'NONE', 'WORKASPACE' ) );
#188 = CC_DESIGN_PERSON_AND_ORGANIZATION_ASSIGNMENT ( #234, #66, ( #208 ) ) ;
#189 = DIRECTION ( 'NONE',  ( -3.842893138118867154E-31, -1.000000000000000000, -1.081678256553547883E-16 ) ) ;
#190 = EDGE_LOOP ( 'NONE', ( #115 ) ) ;
#191 = CYLINDRICAL_SURFACE ( 'NONE', #25, 1.250000000000000666 ) ;
#192 = AXIS2_PLACEMENT_3D ( 'NONE', #76, #158, #98 ) ;
#193 = DIRECTION ( 'NONE',  ( -3.491481338843133355E-15, 1.224646799147353207E-16, -1.000000000000000000 ) ) ;
#194 = LOCAL_TIME ( 14, 8, 14.00000000000000000, #55 ) ;
#195 = PERSON_AND_ORGANIZATION ( #102, #171 ) ;
#196 = PRODUCT_DEFINITION_SHAPE ( 'NONE', 'NONE',  #37 ) ;
#197 = CARTESIAN_POINT ( 'NONE',  ( 8.728703347107827472E-16, -3.061616997868381169E-17, 0.2499999999999998335 ) ) ;
#198 = MANIFOLD_SOLID_BREP ( 'Corps-Déplacer/Copier1[2]', #243 ) ;
#199 = CARTESIAN_POINT ( 'NONE',  ( 6.982962677686265448E-14, 1.503499999999996062, 19.99999999999999645 ) ) ;
#200 = CC_DESIGN_DATE_AND_TIME_ASSIGNMENT ( #164, #218, ( #37 ) ) ;
#201 = DIRECTION ( 'NONE',  ( 0.0000000000000000000, 0.0000000000000000000, 1.000000000000000000 ) ) ;
#202 = CC_DESIGN_APPROVAL ( #152, ( #50 ) ) ;
#203 = APPROVAL_DATE_TIME ( #121, #152 ) ;
#204 = DIRECTION ( 'NONE',  ( -3.491481338843133355E-15, 1.224646799147353207E-16, -1.000000000000000000 ) ) ;
#205 = CARTESIAN_POINT ( 'NONE',  ( 1.946500846405046877E-13, -6.827405905246494765E-15, 55.75000000000000000 ) ) ;
#206 = EDGE_LOOP ( 'NONE', ( #237 ) ) ;
#207 = AXIS2_PLACEMENT_3D ( 'NONE', #10, #48, #110 ) ;
#208 = PRODUCT_DEFINITION_FORMATION_WITH_SPECIFIED_SOURCE ( 'ANY', '', #232, .NOT_KNOWN. ) ;
#209 = EDGE_LOOP ( 'NONE', ( #33 ) ) ;
#210 = DIRECTION ( 'NONE',  ( -3.491481338843133355E-15, 1.224646799147353207E-16, -1.000000000000000000 ) ) ;
#211 = DIRECTION ( 'NONE',  ( -3.491481338843133355E-15, 1.224646799147353207E-16, -1.000000000000000000 ) ) ;
#212 = AXIS2_PLACEMENT_3D ( 'NONE', #24, #201, #160 ) ;
#213 = CALENDAR_DATE ( 2021, 30, 11 ) ;
#214 = VERTEX_POINT ( 'NONE', #199 ) ;
#215 = DATE_AND_TIME ( #9, #135 ) ;
#216 = VERTEX_POINT ( 'NONE', #123 ) ;
#217 = CARTESIAN_POINT ( 'NONE',  ( 1.955229549752154679E-13, 7.498798913309223722E-33, 56.00000000000000000 ) ) ;
#218 = DATE_TIME_ROLE ( 'creation_date' ) ;
#219 = ORIENTED_EDGE ( 'NONE', *, *, #119, .T. ) ;
#220 = CC_DESIGN_DATE_AND_TIME_ASSIGNMENT ( #58, #36, ( #50 ) ) ;
#221 = ORIENTED_EDGE ( 'NONE', *, *, #30, .F. ) ;
#222 = EDGE_LOOP ( 'NONE', ( #154 ) ) ;
#223 = EDGE_CURVE ( 'NONE', #178, #178, #176, .T. ) ;
#224 = PLANE ( 'NONE',  #192 ) ;
#225 = CARTESIAN_POINT ( 'NONE',  ( 1.955229549752154679E-13, -6.858022075225178552E-15, 56.00000000000000000 ) ) ;
#226 = APPROVAL_PERSON_ORGANIZATION ( #195, #68, #104 ) ;
#227 = DESIGN_CONTEXT ( 'detailed design', #59, 'design' ) ;
#228 = APPROVAL_STATUS ( 'not_yet_approved' ) ;
#229 = CARTESIAN_POINT ( 'NONE',  ( 1.946500846405046877E-13, 1.249999999999998446, 55.75000000000000000 ) ) ;
#230 = DIRECTION ( 'NONE',  ( -3.491481338843133355E-15, 1.224646799147353207E-16, -1.000000000000000000 ) ) ;
#231 = APPROVAL_DATE_TIME ( #162, #68 ) ;
#232 = PRODUCT ( '969382', '969382', '', ( #7 ) ) ;
#233 = CARTESIAN_POINT ( 'NONE',  ( 6.982962677686265448E-14, 1.503499999999996062, 19.99999999999999645 ) ) ;
#234 = PERSON_AND_ORGANIZATION ( #102, #171 ) ;
#235 = AXIS2_PLACEMENT_3D ( 'NONE', #205, #204, #27 ) ;
#236 = AXIS2_PLACEMENT_3D ( 'NONE', #131, #75, #242 ) ;
#237 = ORIENTED_EDGE ( 'NONE', *, *, #69, .T. ) ;
#238 = EDGE_LOOP ( 'NONE', ( #153 ) ) ;
#239 = ORIENTED_EDGE ( 'NONE', *, *, #137, .T. ) ;
#240 = ADVANCED_FACE ( 'NONE', ( #15, #20 ), #126, .T. ) ;
#241 = CARTESIAN_POINT ( 'NONE',  ( 8.728703347107827472E-16, -3.061616997868381169E-17, 0.2499999999999998335 ) ) ;
#242 = DIRECTION ( 'NONE',  ( -4.275831445896958607E-31, -1.000000000000000000, -1.224646799147353207E-16 ) ) ;
#243 = CLOSED_SHELL ( 'NONE', ( #112, #57, #12, #74 ) ) ;
ENDSEC;
END-ISO-10303-21;
