ISO-10303-21;
HEADER;
FILE_DESCRIPTION (( 'STEP AP203' ),
    '1' );
FILE_NAME ('969379.step',
    '2021-11-30T13:08:13',
    ( '' ),
    ( '' ),
    'SwSTEP 2.0',
    'SolidWorks 2019',
    '' );
FILE_SCHEMA (( 'CONFIG_CONTROL_DESIGN' ));
ENDSEC;

DATA;
#1 = DIRECTION ( 'NONE',  ( -4.275831445896958607E-31, -1.000000000000000000, -1.224646799147353207E-16 ) ) ;
#2 = CARTESIAN_POINT ( 'NONE',  ( 1.955229549752154679E-13, 0.9999999999999985567, 56.00000000000000000 ) ) ;
#3 = CONICAL_SURFACE ( 'NONE', #181, 1.249999999999996003, 0.5235987755982967062 ) ;
#4 = SECURITY_CLASSIFICATION ( '', '', #46 ) ;
#5 = FACE_OUTER_BOUND ( 'NONE', #12, .T. ) ;
#6 = EDGE_LOOP ( 'NONE', ( #103 ) ) ;
#7 = PERSON_AND_ORGANIZATION ( #136, #212 ) ;
#8 = CONICAL_SURFACE ( 'NONE', #14, 1.000000000000005551, 0.7853981633974473908 ) ;
#9 = APPROVAL ( #11, 'UNSPECIFIED' ) ;
#10 = ORIENTED_EDGE ( 'NONE', *, *, #168, .F. ) ;
#11 = APPROVAL_STATUS ( 'not_yet_approved' ) ;
#12 = EDGE_LOOP ( 'NONE', ( #210 ) ) ;
#13 = COORDINATED_UNIVERSAL_TIME_OFFSET ( 1, 0, .AHEAD. ) ;
#14 = AXIS2_PLACEMENT_3D ( 'NONE', #86, #21, #157 ) ;
#15 = CARTESIAN_POINT ( 'NONE',  ( 6.982962677686266711E-14, 1.123695017159394834E-32, 20.00000000000000000 ) ) ;
#16 = ADVANCED_FACE ( 'NONE', ( #5, #63 ), #3, .T. ) ;
#17 = VERTEX_POINT ( 'NONE', #127 ) ;
#18 = CALENDAR_DATE ( 2021, 30, 11 ) ;
#19 = CARTESIAN_POINT ( 'NONE',  ( 0.0000000000000000000, 0.0000000000000000000, 0.0000000000000000000 ) ) ;
#20 = PLANE ( 'NONE',  #166 ) ;
#21 = DIRECTION ( 'NONE',  ( -3.491481338843133355E-15, 1.224646799147353207E-16, -1.000000000000000000 ) ) ;
#22 = EDGE_CURVE ( 'NONE', #17, #17, #57, .T. ) ;
#23 = ORIENTED_EDGE ( 'NONE', *, *, #26, .F. ) ;
#24 = EDGE_LOOP ( 'NONE', ( #48 ) ) ;
#25 = MECHANICAL_CONTEXT ( 'NONE', #122, 'mechanical' ) ;
#26 = EDGE_CURVE ( 'NONE', #87, #87, #185, .T. ) ;
#27 = COORDINATED_UNIVERSAL_TIME_OFFSET ( 1, 0, .AHEAD. ) ;
#28 = APPROVAL_STATUS ( 'not_yet_approved' ) ;
#29 = CC_DESIGN_PERSON_AND_ORGANIZATION_ASSIGNMENT ( #69, #193, ( #70 ) ) ;
#30 = FACE_OUTER_BOUND ( 'NONE', #238, .T. ) ;
#31 = CIRCLE ( 'NONE', #161, 1.250000000000005329 ) ;
#32 = CARTESIAN_POINT ( 'NONE',  ( 1.955229549752154679E-13, 7.498798913309223722E-33, 56.00000000000000000 ) ) ;
#33 = DIRECTION ( 'NONE',  ( -3.491481338843133355E-15, 1.224646799147353207E-16, -1.000000000000000000 ) ) ;
#34 = PLANE ( 'NONE',  #74 ) ;
#35 = EDGE_CURVE ( 'NONE', #39, #39, #150, .T. ) ;
#36 = DIRECTION ( 'NONE',  ( -4.275831445896958607E-31, -1.000000000000000000, -1.224646799147353207E-16 ) ) ;
#37 = AXIS2_PLACEMENT_3D ( 'NONE', #96, #134, #99 ) ;
#38 = DATE_AND_TIME ( #18, #106 ) ;
#39 = VERTEX_POINT ( 'NONE', #164 ) ;
#40 = AXIS2_PLACEMENT_3D ( 'NONE', #32, #158, #177 ) ;
#41 = LOCAL_TIME ( 14, 8, 13.00000000000000000, #43 ) ;
#42 = EDGE_LOOP ( 'NONE', ( #153 ) ) ;
#43 = COORDINATED_UNIVERSAL_TIME_OFFSET ( 1, 0, .AHEAD. ) ;
#44 = LOCAL_TIME ( 14, 8, 13.00000000000000000, #112 ) ;
#45 = ORIENTED_EDGE ( 'NONE', *, *, #26, .T. ) ;
#46 = SECURITY_CLASSIFICATION_LEVEL ( 'unclassified' ) ;
#47 = CC_DESIGN_PERSON_AND_ORGANIZATION_ASSIGNMENT ( #7, #58, ( #4 ) ) ;
#48 = ORIENTED_EDGE ( 'NONE', *, *, #237, .T. ) ;
#49 = DIRECTION ( 'NONE',  ( -3.491481338843133355E-15, 1.224646799147353207E-16, -1.000000000000000000 ) ) ;
#50 = DATE_TIME_ROLE ( 'creation_date' ) ;
#51 = PERSON_AND_ORGANIZATION ( #136, #212 ) ;
#52 = FACE_OUTER_BOUND ( 'NONE', #68, .T. ) ;
#53 = CARTESIAN_POINT ( 'NONE',  ( 0.0000000000000000000, 0.0000000000000000000, 0.0000000000000000000 ) ) ;
#54 = DIRECTION ( 'NONE',  ( -3.491481338843133355E-15, 1.224646799147353207E-16, -1.000000000000000000 ) ) ;
#55 = DIRECTION ( 'NONE',  ( 0.0000000000000000000, 1.000000000000000000, 0.0000000000000000000 ) ) ;
#56 = DIRECTION ( 'NONE',  ( 0.0000000000000000000, 1.000000000000000000, 0.0000000000000000000 ) ) ;
#57 = CIRCLE ( 'NONE', #85, 1.248500000000000387 ) ;
#58 = PERSON_AND_ORGANIZATION_ROLE ( 'classification_officer' ) ;
#59 = VERTEX_POINT ( 'NONE', #77 ) ;
#60 = DATE_AND_TIME ( #205, #44 ) ;
#61 = ADVANCED_BREP_SHAPE_REPRESENTATION ( '969379', ( #231, #227, #37 ), #208 ) ;
#62 = PERSON_AND_ORGANIZATION ( #136, #212 ) ;
#63 = FACE_BOUND ( 'NONE', #24, .T. ) ;
#64 = AXIS2_PLACEMENT_3D ( 'NONE', #147, #223, #1 ) ;
#65 = PERSON_AND_ORGANIZATION ( #136, #212 ) ;
#66 = EDGE_LOOP ( 'NONE', ( #170 ) ) ;
#67 = DIRECTION ( 'NONE',  ( 4.275831445896958607E-31, 1.000000000000000000, 1.224646799147353207E-16 ) ) ;
#68 = EDGE_LOOP ( 'NONE', ( #45 ) ) ;
#69 = PERSON_AND_ORGANIZATION ( #136, #212 ) ;
#70 = PRODUCT ( '969379', '969379', '', ( #25 ) ) ;
#71 = DIRECTION ( 'NONE',  ( -3.855715604378856631E-31, -1.000000000000000000, -1.085287459945451594E-16 ) ) ;
#72 = FACE_OUTER_BOUND ( 'NONE', #42, .T. ) ;
#73 = FACE_OUTER_BOUND ( 'NONE', #66, .T. ) ;
#74 = AXIS2_PLACEMENT_3D ( 'NONE', #15, #226, #241 ) ;
#75 = CYLINDRICAL_SURFACE ( 'NONE', #113, 1.498499999999999943 ) ;
#76 = CARTESIAN_POINT ( 'NONE',  ( 1.955229549752154679E-13, -6.858022075225178552E-15, 56.00000000000000000 ) ) ;
#77 = CARTESIAN_POINT ( 'NONE',  ( 7.133241141039260380E-14, 1.249999999999993339, 20.43041462568087852 ) ) ;
#78 = APPROVAL ( #28, 'UNSPECIFIED' ) ;
#79 = COORDINATED_UNIVERSAL_TIME_OFFSET ( 1, 0, .AHEAD. ) ;
#80 = ORIENTED_EDGE ( 'NONE', *, *, #22, .F. ) ;
#81 = AXIS2_PLACEMENT_3D ( 'NONE', #137, #49, #97 ) ;
#82 =( NAMED_UNIT ( * ) SI_UNIT ( $, .STERADIAN. ) SOLID_ANGLE_UNIT ( ) );
#83 = ADVANCED_FACE ( 'NONE', ( #143 ), #34, .T. ) ;
#84 = DATE_AND_TIME ( #98, #217 ) ;
#85 = AXIS2_PLACEMENT_3D ( 'NONE', #192, #172, #67 ) ;
#86 = CARTESIAN_POINT ( 'NONE',  ( 1.955229549752154679E-13, -6.858022075225178552E-15, 56.00000000000000000 ) ) ;
#87 = VERTEX_POINT ( 'NONE', #222 ) ;
#88 = DESIGN_CONTEXT ( 'detailed design', #131, 'design' ) ;
#89 = EDGE_CURVE ( 'NONE', #111, #111, #31, .T. ) ;
#90 = CARTESIAN_POINT ( 'NONE',  ( 6.982962677686266711E-14, 1.123695017159394834E-32, 20.00000000000000000 ) ) ;
#91 = DIRECTION ( 'NONE',  ( 3.491481338843133355E-15, -1.224646799147353207E-16, 1.000000000000000000 ) ) ;
#92 = VERTEX_POINT ( 'NONE', #2 ) ;
#93 = AXIS2_PLACEMENT_3D ( 'NONE', #76, #120, #142 ) ;
#94 = CC_DESIGN_DATE_AND_TIME_ASSIGNMENT ( #60, #159, ( #4 ) ) ;
#95 = CC_DESIGN_DATE_AND_TIME_ASSIGNMENT ( #154, #50, ( #165 ) ) ;
#96 = CARTESIAN_POINT ( 'NONE',  ( 0.0000000000000000000, 0.0000000000000000000, 0.0000000000000000000 ) ) ;
#97 = DIRECTION ( 'NONE',  ( 0.0000000000000000000, 1.000000000000000000, 0.0000000000000000000 ) ) ;
#98 = CALENDAR_DATE ( 2021, 30, 11 ) ;
#99 = DIRECTION ( 'NONE',  ( 1.000000000000000000, 0.0000000000000000000, 0.0000000000000000000 ) ) ;
#100 = CC_DESIGN_APPROVAL ( #135, ( #4 ) ) ;
#101 = EDGE_LOOP ( 'NONE', ( #119 ) ) ;
#102 = APPROVAL_ROLE ( '' ) ;
#103 = ORIENTED_EDGE ( 'NONE', *, *, #187, .T. ) ;
#104 =( LENGTH_UNIT ( ) NAMED_UNIT ( * ) SI_UNIT ( .MILLI., .METRE. ) );
#105 = PLANE ( 'NONE',  #40 ) ;
#106 = LOCAL_TIME ( 14, 8, 13.00000000000000000, #13 ) ;
#107 = CARTESIAN_POINT ( 'NONE',  ( 7.133241141039260380E-14, -2.502004187659336162E-15, 20.43041462568087852 ) ) ;
#108 = PERSON_AND_ORGANIZATION ( #136, #212 ) ;
#109 = PLANE ( 'NONE',  #64 ) ;
#110 = CC_DESIGN_APPROVAL ( #78, ( #165 ) ) ;
#111 = VERTEX_POINT ( 'NONE', #128 ) ;
#112 = COORDINATED_UNIVERSAL_TIME_OFFSET ( 1, 0, .AHEAD. ) ;
#113 = AXIS2_PLACEMENT_3D ( 'NONE', #19, #33, #219 ) ;
#114 = EDGE_LOOP ( 'NONE', ( #23 ) ) ;
#115 = CALENDAR_DATE ( 2021, 30, 11 ) ;
#116 = CALENDAR_DATE ( 2021, 30, 11 ) ;
#117 = EDGE_LOOP ( 'NONE', ( #236 ) ) ;
#118 = APPLICATION_PROTOCOL_DEFINITION ( 'international standard', 'config_control_design', 1994, #122 ) ;
#119 = ORIENTED_EDGE ( 'NONE', *, *, #35, .T. ) ;
#120 = DIRECTION ( 'NONE',  ( -3.491481338843133355E-15, 1.224646799147353207E-16, -1.000000000000000000 ) ) ;
#121 = PRODUCT_RELATED_PRODUCT_CATEGORY ( 'detail', '', ( #70 ) ) ;
#122 = APPLICATION_CONTEXT ( 'configuration controlled 3d designs of mechanical parts and assemblies' ) ;
#123 = DIRECTION ( 'NONE',  ( 4.275831445896957731E-31, 1.000000000000000000, 1.224646799147353454E-16 ) ) ;
#124 = CIRCLE ( 'NONE', #182, 1.249999999999996003 ) ;
#125 = PRODUCT_DEFINITION_FORMATION_WITH_SPECIFIED_SOURCE ( 'ANY', '', #70, .NOT_KNOWN. ) ;
#126 = DIRECTION ( 'NONE',  ( -3.491481338843133355E-15, 1.224646799147353207E-16, -1.000000000000000000 ) ) ;
#127 = CARTESIAN_POINT ( 'NONE',  ( 1.135641495829896858E-30, 1.248500000000000387, 3.252606517456513302E-16 ) ) ;
#128 = CARTESIAN_POINT ( 'NONE',  ( 1.946500846405046877E-13, 1.249999999999998446, 55.75000000000000000 ) ) ;
#129 = CC_DESIGN_PERSON_AND_ORGANIZATION_ASSIGNMENT ( #62, #197, ( #165 ) ) ;
#130 = ADVANCED_FACE ( 'NONE', ( #179, #52 ), #75, .T. ) ;
#131 = APPLICATION_CONTEXT ( 'configuration controlled 3d designs of mechanical parts and assemblies' ) ;
#132 = EDGE_LOOP ( 'NONE', ( #190 ) ) ;
#133 = DIRECTION ( 'NONE',  ( -3.491481338843133355E-15, 1.224646799147353207E-16, -1.000000000000000000 ) ) ;
#134 = DIRECTION ( 'NONE',  ( 0.0000000000000000000, 0.0000000000000000000, 1.000000000000000000 ) ) ;
#135 = APPROVAL ( #207, 'UNSPECIFIED' ) ;
#136 = PERSON ( 'UNSPECIFIED', 'UNSPECIFIED', 'UNSPECIFIED', ('UNSPECIFIED'), ('UNSPECIFIED'), ('UNSPECIFIED') ) ;
#137 = CARTESIAN_POINT ( 'NONE',  ( 6.982962677686266711E-14, -2.449293598294706513E-15, 20.00000000000000000 ) ) ;
#138 = APPLICATION_PROTOCOL_DEFINITION ( 'international standard', 'config_control_design', 1994, #131 ) ;
#139 = EDGE_LOOP ( 'NONE', ( #152 ) ) ;
#140 = CONICAL_SURFACE ( 'NONE', #145, 1.498499999999997723, 0.7853981633974432830 ) ;
#141 = APPROVAL_DATE_TIME ( #233, #9 ) ;
#142 = DIRECTION ( 'NONE',  ( 0.0000000000000000000, 1.000000000000000000, 0.0000000000000000000 ) ) ;
#143 = FACE_OUTER_BOUND ( 'NONE', #114, .T. ) ;
#144 = FACE_OUTER_BOUND ( 'NONE', #101, .T. ) ;
#145 = AXIS2_PLACEMENT_3D ( 'NONE', #239, #155, #71 ) ;
#146 = FACE_OUTER_BOUND ( 'NONE', #132, .T. ) ;
#147 = CARTESIAN_POINT ( 'NONE',  ( 3.009019699048306684E-31, -1.055422035917804428E-32, 8.618174943605212245E-17 ) ) ;
#148 = ADVANCED_FACE ( 'NONE', ( #146, #204 ), #8, .T. ) ;
#149 = APPROVAL_ROLE ( '' ) ;
#150 = CIRCLE ( 'NONE', #221, 1.498500000000002164 ) ;
#151 = CC_DESIGN_APPROVAL ( #9, ( #125 ) ) ;
#152 = ORIENTED_EDGE ( 'NONE', *, *, #89, .T. ) ;
#153 = ORIENTED_EDGE ( 'NONE', *, *, #237, .F. ) ;
#154 = DATE_AND_TIME ( #115, #41 ) ;
#155 = DIRECTION ( 'NONE',  ( 3.491481338843133355E-15, -1.224646799147353207E-16, 1.000000000000000000 ) ) ;
#156 = LOCAL_TIME ( 14, 8, 13.00000000000000000, #79 ) ;
#157 = DIRECTION ( 'NONE',  ( 0.0000000000000000000, 1.000000000000000000, 0.0000000000000000000 ) ) ;
#158 = DIRECTION ( 'NONE',  ( -3.491481338843133355E-15, 1.224646799147353207E-16, -1.000000000000000000 ) ) ;
#159 = DATE_TIME_ROLE ( 'classification_date' ) ;
#160 = FACE_OUTER_BOUND ( 'NONE', #117, .T. ) ;
#161 = AXIS2_PLACEMENT_3D ( 'NONE', #163, #199, #56 ) ;
#162 = CC_DESIGN_PERSON_AND_ORGANIZATION_ASSIGNMENT ( #51, #214, ( #125 ) ) ;
#163 = CARTESIAN_POINT ( 'NONE',  ( 1.946500846405046877E-13, -6.827405905246494765E-15, 55.75000000000000000 ) ) ;
#164 = CARTESIAN_POINT ( 'NONE',  ( 6.982962677686266711E-14, 1.498499999999999943, 20.00000000000000000 ) ) ;
#165 = PRODUCT_DEFINITION ( 'UNKNOWN', '', #125, #88 ) ;
#166 = AXIS2_PLACEMENT_3D ( 'NONE', #90, #91, #36 ) ;
#167 = APPROVAL_DATE_TIME ( #38, #135 ) ;
#168 = EDGE_CURVE ( 'NONE', #206, #206, #194, .T. ) ;
#169 = PRODUCT_DEFINITION_SHAPE ( 'NONE', 'NONE',  #165 ) ;
#170 = ORIENTED_EDGE ( 'NONE', *, *, #22, .T. ) ;
#171 = ADVANCED_FACE ( 'NONE', ( #144 ), #20, .F. ) ;
#172 = DIRECTION ( 'NONE',  ( -3.491481338843133355E-15, 1.224646799147353207E-16, -1.000000000000000000 ) ) ;
#173 = ADVANCED_FACE ( 'NONE', ( #73 ), #109, .F. ) ;
#174 = AXIS2_PLACEMENT_3D ( 'NONE', #53, #126, #123 ) ;
#175 = EDGE_LOOP ( 'NONE', ( #10 ) ) ;
#176 = APPROVAL_ROLE ( '' ) ;
#177 = DIRECTION ( 'NONE',  ( 4.275831445896958607E-31, 1.000000000000000000, 1.224646799147353207E-16 ) ) ;
#178 = DIRECTION ( 'NONE',  ( 0.0000000000000000000, 1.000000000000000000, 0.0000000000000000000 ) ) ;
#179 = FACE_OUTER_BOUND ( 'NONE', #175, .T. ) ;
#180 = DIRECTION ( 'NONE',  ( 3.855715604378856631E-31, 1.000000000000000000, 1.085287459945451594E-16 ) ) ;
#181 = AXIS2_PLACEMENT_3D ( 'NONE', #198, #133, #213 ) ;
#182 = AXIS2_PLACEMENT_3D ( 'NONE', #107, #54, #55 ) ;
#183 = FACE_BOUND ( 'NONE', #232, .T. ) ;
#184 = CARTESIAN_POINT ( 'NONE',  ( 8.728703347107833388E-16, 1.498499999999997723, 0.2500000000000000000 ) ) ;
#185 = CIRCLE ( 'NONE', #81, 1.498500000000002164 ) ;
#186 = ADVANCED_FACE ( 'NONE', ( #183, #160 ), #140, .T. ) ;
#187 = EDGE_CURVE ( 'NONE', #92, #92, #216, .T. ) ;
#188 = CLOSED_SHELL ( 'NONE', ( #173, #186, #130, #83 ) ) ;
#189 = CC_DESIGN_SECURITY_CLASSIFICATION ( #4, ( #125 ) ) ;
#190 = ORIENTED_EDGE ( 'NONE', *, *, #89, .F. ) ;
#191 = PERSON_AND_ORGANIZATION ( #136, #212 ) ;
#192 = CARTESIAN_POINT ( 'NONE',  ( 6.018039398096613368E-31, -2.110844071835608855E-32, 1.723634988721042449E-16 ) ) ;
#193 = PERSON_AND_ORGANIZATION_ROLE ( 'design_owner' ) ;
#194 = CIRCLE ( 'NONE', #229, 1.498499999999997723 ) ;
#195 = APPROVAL_PERSON_ORGANIZATION ( #191, #9, #102 ) ;
#196 = CARTESIAN_POINT ( 'NONE',  ( 6.982962677686266711E-14, -2.449293598294706513E-15, 20.00000000000000000 ) ) ;
#197 = PERSON_AND_ORGANIZATION_ROLE ( 'creator' ) ;
#198 = CARTESIAN_POINT ( 'NONE',  ( 7.133241141039260380E-14, -2.502004187659336162E-15, 20.43041462568087852 ) ) ;
#199 = DIRECTION ( 'NONE',  ( -3.491481338843133355E-15, 1.224646799147353207E-16, -1.000000000000000000 ) ) ;
#200 = SHAPE_DEFINITION_REPRESENTATION ( #169, #61 ) ;
#201 = CLOSED_SHELL ( 'NONE', ( #171, #16, #228, #148, #225 ) ) ;
#202 = DIRECTION ( 'NONE',  ( -3.491481338843133355E-15, 1.224646799147353207E-16, -1.000000000000000000 ) ) ;
#203 = DIRECTION ( 'NONE',  ( -3.491481338843133355E-15, 1.224646799147353207E-16, -1.000000000000000000 ) ) ;
#204 = FACE_BOUND ( 'NONE', #6, .T. ) ;
#205 = CALENDAR_DATE ( 2021, 30, 11 ) ;
#206 = VERTEX_POINT ( 'NONE', #184 ) ;
#207 = APPROVAL_STATUS ( 'not_yet_approved' ) ;
#208 =( GEOMETRIC_REPRESENTATION_CONTEXT ( 3 ) GLOBAL_UNCERTAINTY_ASSIGNED_CONTEXT ( ( #224 ) ) GLOBAL_UNIT_ASSIGNED_CONTEXT ( ( #104, #235, #82 ) ) REPRESENTATION_CONTEXT ( 'NONE', 'WORKASPACE' ) );
#209 = CC_DESIGN_PERSON_AND_ORGANIZATION_ASSIGNMENT ( #65, #218, ( #125 ) ) ;
#210 = ORIENTED_EDGE ( 'NONE', *, *, #35, .F. ) ;
#211 = APPROVAL_DATE_TIME ( #84, #78 ) ;
#212 = ORGANIZATION ( 'UNSPECIFIED', 'UNSPECIFIED', '' ) ;
#213 = DIRECTION ( 'NONE',  ( 0.0000000000000000000, 1.000000000000000000, 0.0000000000000000000 ) ) ;
#214 = PERSON_AND_ORGANIZATION_ROLE ( 'design_supplier' ) ;
#215 = PERSON_AND_ORGANIZATION ( #136, #212 ) ;
#216 = CIRCLE ( 'NONE', #93, 1.000000000000005551 ) ;
#217 = LOCAL_TIME ( 14, 8, 13.00000000000000000, #27 ) ;
#218 = PERSON_AND_ORGANIZATION_ROLE ( 'creator' ) ;
#219 = DIRECTION ( 'NONE',  ( 4.275831445896958607E-31, 1.000000000000000000, 1.224646799147352961E-16 ) ) ;
#220 = CYLINDRICAL_SURFACE ( 'NONE', #174, 1.250000000000000666 ) ;
#221 = AXIS2_PLACEMENT_3D ( 'NONE', #196, #203, #178 ) ;
#222 = CARTESIAN_POINT ( 'NONE',  ( 6.982962677686266711E-14, 1.498499999999999943, 20.00000000000000000 ) ) ;
#223 = DIRECTION ( 'NONE',  ( 3.491481338843133355E-15, -1.224646799147353207E-16, 1.000000000000000000 ) ) ;
#224 = UNCERTAINTY_MEASURE_WITH_UNIT (LENGTH_MEASURE( 1.000000000000000082E-05 ), #104, 'distance_accuracy_value', 'NONE');
#225 = ADVANCED_FACE ( 'NONE', ( #30 ), #105, .F. ) ;
#226 = DIRECTION ( 'NONE',  ( 3.491481338843133355E-15, -1.224646799147353207E-16, 1.000000000000000000 ) ) ;
#227 = MANIFOLD_SOLID_BREP ( 'Corps-Déplacer/Copier1[2]', #188 ) ;
#228 = ADVANCED_FACE ( 'NONE', ( #72, #242 ), #220, .T. ) ;
#229 = AXIS2_PLACEMENT_3D ( 'NONE', #240, #202, #180 ) ;
#230 = APPROVAL_PERSON_ORGANIZATION ( #215, #78, #176 ) ;
#231 = MANIFOLD_SOLID_BREP ( 'Corps-Déplacer/Copier1[1]', #201 ) ;
#232 = EDGE_LOOP ( 'NONE', ( #80 ) ) ;
#233 = DATE_AND_TIME ( #116, #156 ) ;
#234 = ORIENTED_EDGE ( 'NONE', *, *, #187, .F. ) ;
#235 =( NAMED_UNIT ( * ) PLANE_ANGLE_UNIT ( ) SI_UNIT ( $, .RADIAN. ) );
#236 = ORIENTED_EDGE ( 'NONE', *, *, #168, .T. ) ;
#237 = EDGE_CURVE ( 'NONE', #59, #59, #124, .T. ) ;
#238 = EDGE_LOOP ( 'NONE', ( #234 ) ) ;
#239 = CARTESIAN_POINT ( 'NONE',  ( 8.728703347107827472E-16, -3.061616997868381169E-17, 0.2499999999999998335 ) ) ;
#240 = CARTESIAN_POINT ( 'NONE',  ( 8.728703347107827472E-16, -3.061616997868381169E-17, 0.2499999999999998335 ) ) ;
#241 = DIRECTION ( 'NONE',  ( -4.275831445896958607E-31, -1.000000000000000000, -1.224646799147353207E-16 ) ) ;
#242 = FACE_OUTER_BOUND ( 'NONE', #139, .T. ) ;
#243 = APPROVAL_PERSON_ORGANIZATION ( #108, #135, #149 ) ;
ENDSEC;
END-ISO-10303-21;
