ISO-10303-21;
HEADER;
FILE_DESCRIPTION (( 'STEP AP203' ),
    '1' );
FILE_NAME ('969261.step',
    '2021-10-28T09:23:29',
    ( '' ),
    ( '' ),
    'SwSTEP 2.0',
    'SolidWorks 2019',
    '' );
FILE_SCHEMA (( 'CONFIG_CONTROL_DESIGN' ));
ENDSEC;

DATA;
#1 = CARTESIAN_POINT ( 'NONE',  ( 0.0000000000000000000, 0.0000000000000000000, 0.0000000000000000000 ) ) ;
#2 = APPROVAL_PERSON_ORGANIZATION ( #199, #77, #198 ) ;
#3 = CARTESIAN_POINT ( 'NONE',  ( 1.296211186451522404E-15, -4.546496820266032618E-17, 0.3712496389515312356 ) ) ;
#4 = MECHANICAL_CONTEXT ( 'NONE', #137, 'mechanical' ) ;
#5 = CLOSED_SHELL ( 'NONE', ( #80, #167, #25 ) ) ;
#6 = EDGE_LOOP ( 'NONE', ( #50 ) ) ;
#7 = EDGE_LOOP ( 'NONE', ( #47 ) ) ;
#8 = LOCAL_TIME ( 11, 23, 29.00000000000000000, #145 ) ;
#9 = CIRCLE ( 'NONE', #61, 1.499999999999999112 ) ;
#10 = EDGE_LOOP ( 'NONE', ( #96 ) ) ;
#11 = PERSON ( 'UNSPECIFIED', 'UNSPECIFIED', 'UNSPECIFIED', ('UNSPECIFIED'), ('UNSPECIFIED'), ('UNSPECIFIED') ) ;
#12 = PLANE ( 'NONE',  #142 ) ;
#13 = MANIFOLD_SOLID_BREP ( 'Corps-Déplacer/Copier1[1]', #68 ) ;
#14 = DESIGN_CONTEXT ( 'detailed design', #203, 'design' ) ;
#15 = CYLINDRICAL_SURFACE ( 'NONE', #202, 1.499999999999998446 ) ;
#16 = CC_DESIGN_PERSON_AND_ORGANIZATION_ASSIGNMENT ( #197, #111, ( #174 ) ) ;
#17 = DIRECTION ( 'NONE',  ( -4.275831445896958607E-31, -1.000000000000000000, -1.224646799147353207E-16 ) ) ;
#18 = CARTESIAN_POINT ( 'NONE',  ( 5.237222008264700033E-14, 1.019999999999998241, 15.00000000000000000 ) ) ;
#19 = CARTESIAN_POINT ( 'NONE',  ( 1.296211186451522010E-15, -1.020000000000000018, 0.3712496389515311801 ) ) ;
#20 = CIRCLE ( 'NONE', #38, 1.199999999999999956 ) ;
#21 = PRODUCT ( '969261', '969261', '', ( #4 ) ) ;
#22 = APPROVAL_STATUS ( 'not_yet_approved' ) ;
#23 = DIRECTION ( 'NONE',  ( 0.0000000000000000000, 0.0000000000000000000, 1.000000000000000000 ) ) ;
#24 = APPROVAL_DATE_TIME ( #146, #95 ) ;
#25 = ADVANCED_FACE ( 'NONE', ( #220 ), #217, .T. ) ;
#26 = EDGE_LOOP ( 'NONE', ( #152 ) ) ;
#27 = AXIS2_PLACEMENT_3D ( 'NONE', #3, #177, #125 ) ;
#28 = EDGE_CURVE ( 'NONE', #84, #84, #102, .T. ) ;
#29 = PERSON_AND_ORGANIZATION_ROLE ( 'design_supplier' ) ;
#30 = EDGE_LOOP ( 'NONE', ( #121 ) ) ;
#31 = ORIENTED_EDGE ( 'NONE', *, *, #28, .F. ) ;
#32 = APPROVAL ( #22, 'UNSPECIFIED' ) ;
#33 = CC_DESIGN_SECURITY_CLASSIFICATION ( #174, ( #98 ) ) ;
#34 = CARTESIAN_POINT ( 'NONE',  ( 1.906192921252232855E-15, -6.686024735685322183E-17, 0.5459553513993090634 ) ) ;
#35 = FACE_OUTER_BOUND ( 'NONE', #63, .T. ) ;
#36 = DIRECTION ( 'NONE',  ( 3.491481338843133355E-15, -1.229791517316362731E-16, 1.000000000000000000 ) ) ;
#37 = DIRECTION ( 'NONE',  ( 0.0000000000000000000, 1.000000000000000000, 0.0000000000000000000 ) ) ;
#38 = AXIS2_PLACEMENT_3D ( 'NONE', #122, #87, #192 ) ;
#39 = DIRECTION ( 'NONE',  ( -3.491481338843133355E-15, 1.224646799147353207E-16, -1.000000000000000000 ) ) ;
#40 = DIRECTION ( 'NONE',  ( 3.491481338843133355E-15, -1.224646799147353207E-16, 1.000000000000000000 ) ) ;
#41 = PERSON_AND_ORGANIZATION ( #11, #81 ) ;
#42 = DATE_AND_TIME ( #44, #134 ) ;
#43 = ADVANCED_FACE ( 'NONE', ( #176 ), #12, .F. ) ;
#44 = CALENDAR_DATE ( 2021, 28, 10 ) ;
#45 = AXIS2_PLACEMENT_3D ( 'NONE', #222, #36, #223 ) ;
#46 = DATE_TIME_ROLE ( 'creation_date' ) ;
#47 = ORIENTED_EDGE ( 'NONE', *, *, #85, .F. ) ;
#48 = APPROVAL_DATE_TIME ( #184, #32 ) ;
#49 = ADVANCED_FACE ( 'NONE', ( #213, #141 ), #200, .T. ) ;
#50 = ORIENTED_EDGE ( 'NONE', *, *, #131, .F. ) ;
#51 = PLANE ( 'NONE',  #150 ) ;
#52 = DIRECTION ( 'NONE',  ( -3.491481338843133355E-15, 1.224646799147353207E-16, -1.000000000000000000 ) ) ;
#53 = APPROVAL_PERSON_ORGANIZATION ( #161, #95, #214 ) ;
#54 = DIRECTION ( 'NONE',  ( -4.275831445896958607E-31, -1.000000000000000000, -1.224646799147353207E-16 ) ) ;
#55 = AXIS2_PLACEMENT_3D ( 'NONE', #34, #216, #171 ) ;
#56 = CC_DESIGN_DATE_AND_TIME_ASSIGNMENT ( #109, #92, ( #174 ) ) ;
#57 = CARTESIAN_POINT ( 'NONE',  ( 1.316288464743861212E-13, 1.499999999999995337, 37.69999999999999574 ) ) ;
#58 = DIRECTION ( 'NONE',  ( -3.491481338843133355E-15, 1.224646799147353207E-16, -1.000000000000000000 ) ) ;
#59 = APPLICATION_PROTOCOL_DEFINITION ( 'international standard', 'config_control_design', 1994, #203 ) ;
#60 = PERSON_AND_ORGANIZATION ( #11, #81 ) ;
#61 = AXIS2_PLACEMENT_3D ( 'NONE', #123, #175, #140 ) ;
#62 = CC_DESIGN_DATE_AND_TIME_ASSIGNMENT ( #201, #46, ( #186 ) ) ;
#63 = EDGE_LOOP ( 'NONE', ( #31 ) ) ;
#64 = EDGE_LOOP ( 'NONE', ( #187 ) ) ;
#65 = DIRECTION ( 'NONE',  ( 0.0000000000000000000, 1.000000000000000000, 0.0000000000000000000 ) ) ;
#66 = DIRECTION ( 'NONE',  ( -3.491481338843133355E-15, 1.229791517316362731E-16, -1.000000000000000000 ) ) ;
#67 = CARTESIAN_POINT ( 'NONE',  ( 1.326762908760390423E-13, 8.998558695971077224E-33, 38.00000000000000000 ) ) ;
#68 = CLOSED_SHELL ( 'NONE', ( #115, #49, #43, #169, #182 ) ) ;
#69 = VERTEX_POINT ( 'NONE', #155 ) ;
#70 =( GEOMETRIC_REPRESENTATION_CONTEXT ( 3 ) GLOBAL_UNCERTAINTY_ASSIGNED_CONTEXT ( ( #205 ) ) GLOBAL_UNIT_ASSIGNED_CONTEXT ( ( #162, #94, #91 ) ) REPRESENTATION_CONTEXT ( 'NONE', 'WORKASPACE' ) );
#71 = PLANE ( 'NONE',  #124 ) ;
#72 = PERSON_AND_ORGANIZATION ( #11, #81 ) ;
#73 = CALENDAR_DATE ( 2021, 28, 10 ) ;
#74 = CONICAL_SURFACE ( 'NONE', #45, 1.499999999999999112, 0.2617993877991507956 ) ;
#75 = APPROVAL_STATUS ( 'not_yet_approved' ) ;
#76 = ORIENTED_EDGE ( 'NONE', *, *, #185, .F. ) ;
#77 = APPROVAL ( #130, 'UNSPECIFIED' ) ;
#78 = EDGE_LOOP ( 'NONE', ( #204 ) ) ;
#79 = CARTESIAN_POINT ( 'NONE',  ( 0.0000000000000000000, 0.0000000000000000000, 0.0000000000000000000 ) ) ;
#80 = ADVANCED_FACE ( 'NONE', ( #35 ), #71, .T. ) ;
#81 = ORGANIZATION ( 'UNSPECIFIED', 'UNSPECIFIED', '' ) ;
#82 = FACE_OUTER_BOUND ( 'NONE', #163, .T. ) ;
#83 = FACE_OUTER_BOUND ( 'NONE', #10, .T. ) ;
#84 = VERTEX_POINT ( 'NONE', #18 ) ;
#85 = EDGE_CURVE ( 'NONE', #69, #69, #20, .T. ) ;
#86 = EDGE_CURVE ( 'NONE', #209, #209, #88, .T. ) ;
#87 = DIRECTION ( 'NONE',  ( -3.491481338843133355E-15, 1.224646799147353207E-16, -1.000000000000000000 ) ) ;
#88 = CIRCLE ( 'NONE', #27, 1.020000000000000018 ) ;
#89 = CARTESIAN_POINT ( 'NONE',  ( 1.326762908760390423E-13, -4.653657836759941941E-15, 38.00000000000000000 ) ) ;
#90 = COORDINATED_UNIVERSAL_TIME_OFFSET ( 1, 0, .AHEAD. ) ;
#91 =( NAMED_UNIT ( * ) SI_UNIT ( $, .STERADIAN. ) SOLID_ANGLE_UNIT ( ) );
#92 = DATE_TIME_ROLE ( 'classification_date' ) ;
#93 = AXIS2_PLACEMENT_3D ( 'NONE', #191, #156, #37 ) ;
#94 =( NAMED_UNIT ( * ) PLANE_ANGLE_UNIT ( ) SI_UNIT ( $, .RADIAN. ) );
#95 = APPROVAL ( #75, 'UNSPECIFIED' ) ;
#96 = ORIENTED_EDGE ( 'NONE', *, *, #131, .T. ) ;
#97 = CC_DESIGN_APPROVAL ( #95, ( #186 ) ) ;
#98 = PRODUCT_DEFINITION_FORMATION_WITH_SPECIFIED_SOURCE ( 'ANY', '', #21, .NOT_KNOWN. ) ;
#99 = CALENDAR_DATE ( 2021, 28, 10 ) ;
#100 = FACE_OUTER_BOUND ( 'NONE', #30, .T. ) ;
#101 = CARTESIAN_POINT ( 'NONE',  ( 5.237222008264700033E-14, 1.124819836996388553E-32, 15.00000000000000000 ) ) ;
#102 = CIRCLE ( 'NONE', #136, 1.020000000000000240 ) ;
#103 = DIRECTION ( 'NONE',  ( -3.491481338843133355E-15, 1.229791517316362731E-16, -1.000000000000000000 ) ) ;
#104 = CC_DESIGN_PERSON_AND_ORGANIZATION_ASSIGNMENT ( #60, #133, ( #186 ) ) ;
#105 = PRODUCT_RELATED_PRODUCT_CATEGORY ( 'detail', '', ( #21 ) ) ;
#106 = DIRECTION ( 'NONE',  ( -3.491481338843133355E-15, 1.224646799147353207E-16, -1.000000000000000000 ) ) ;
#107 = DIRECTION ( 'NONE',  ( 3.491481338843133355E-15, -1.224646799147353207E-16, 1.000000000000000000 ) ) ;
#108 = CC_DESIGN_PERSON_AND_ORGANIZATION_ASSIGNMENT ( #72, #29, ( #98 ) ) ;
#109 = DATE_AND_TIME ( #179, #112 ) ;
#110 = APPLICATION_PROTOCOL_DEFINITION ( 'international standard', 'config_control_design', 1994, #137 ) ;
#111 = PERSON_AND_ORGANIZATION_ROLE ( 'classification_officer' ) ;
#112 = LOCAL_TIME ( 11, 23, 29.00000000000000000, #127 ) ;
#113 = PERSON_AND_ORGANIZATION_ROLE ( 'creator' ) ;
#114 = EDGE_CURVE ( 'NONE', #194, #194, #118, .T. ) ;
#115 = ADVANCED_FACE ( 'NONE', ( #173, #83 ), #15, .T. ) ;
#116 = PERSON_AND_ORGANIZATION_ROLE ( 'design_owner' ) ;
#117 = ORIENTED_EDGE ( 'NONE', *, *, #86, .F. ) ;
#118 = CIRCLE ( 'NONE', #93, 1.020000000000000240 ) ;
#119 = SHAPE_DEFINITION_REPRESENTATION ( #128, #219 ) ;
#120 = CC_DESIGN_APPROVAL ( #77, ( #98 ) ) ;
#121 = ORIENTED_EDGE ( 'NONE', *, *, #185, .T. ) ;
#122 = CARTESIAN_POINT ( 'NONE',  ( 1.326762908760390423E-13, -4.653657836759941941E-15, 38.00000000000000000 ) ) ;
#123 = CARTESIAN_POINT ( 'NONE',  ( 5.862680524276271658E-14, -2.064990208390952933E-15, 16.79138438763304819 ) ) ;
#124 = AXIS2_PLACEMENT_3D ( 'NONE', #159, #107, #54 ) ;
#125 = DIRECTION ( 'NONE',  ( -3.776333224288697691E-31, -1.000000000000000000, -1.062943306358337663E-16 ) ) ;
#126 = CARTESIAN_POINT ( 'NONE',  ( 0.0000000000000000000, 0.0000000000000000000, 0.0000000000000000000 ) ) ;
#127 = COORDINATED_UNIVERSAL_TIME_OFFSET ( 1, 0, .AHEAD. ) ;
#128 = PRODUCT_DEFINITION_SHAPE ( 'NONE', 'NONE',  #186 ) ;
#129 = APPROVAL_DATE_TIME ( #42, #77 ) ;
#130 = APPROVAL_STATUS ( 'not_yet_approved' ) ;
#131 = EDGE_CURVE ( 'NONE', #212, #212, #211, .T. ) ;
#132 = APPROVAL_PERSON_ORGANIZATION ( #178, #32, #160 ) ;
#133 = PERSON_AND_ORGANIZATION_ROLE ( 'creator' ) ;
#134 = LOCAL_TIME ( 11, 23, 29.00000000000000000, #90 ) ;
#135 = EDGE_LOOP ( 'NONE', ( #164 ) ) ;
#136 = AXIS2_PLACEMENT_3D ( 'NONE', #166, #103, #172 ) ;
#137 = APPLICATION_CONTEXT ( 'configuration controlled 3d designs of mechanical parts and assemblies' ) ;
#138 = CC_DESIGN_PERSON_AND_ORGANIZATION_ASSIGNMENT ( #148, #116, ( #21 ) ) ;
#139 = FACE_OUTER_BOUND ( 'NONE', #206, .T. ) ;
#140 = DIRECTION ( 'NONE',  ( 0.0000000000000000000, 1.000000000000000000, 0.0000000000000000000 ) ) ;
#141 = FACE_BOUND ( 'NONE', #26, .T. ) ;
#142 = AXIS2_PLACEMENT_3D ( 'NONE', #67, #106, #195 ) ;
#143 = CARTESIAN_POINT ( 'NONE',  ( 5.237222008264700033E-14, 1.019999999999998241, 15.00000000000000000 ) ) ;
#144 = DIRECTION ( 'NONE',  ( 4.293794133377662246E-31, 1.000000000000000000, 1.229791517316362731E-16 ) ) ;
#145 = COORDINATED_UNIVERSAL_TIME_OFFSET ( 1, 0, .AHEAD. ) ;
#146 = DATE_AND_TIME ( #73, #181 ) ;
#147 = COORDINATED_UNIVERSAL_TIME_OFFSET ( 1, 0, .AHEAD. ) ;
#148 = PERSON_AND_ORGANIZATION ( #11, #81 ) ;
#149 = CARTESIAN_POINT ( 'NONE',  ( 5.862680524276271658E-14, 1.499999999999996891, 16.79138438763304819 ) ) ;
#150 = AXIS2_PLACEMENT_3D ( 'NONE', #101, #40, #17 ) ;
#151 = AXIS2_PLACEMENT_3D ( 'NONE', #79, #23, #218 ) ;
#152 = ORIENTED_EDGE ( 'NONE', *, *, #85, .T. ) ;
#153 = DIRECTION ( 'NONE',  ( 0.0000000000000000000, 1.000000000000000000, 0.0000000000000000000 ) ) ;
#154 = FACE_OUTER_BOUND ( 'NONE', #78, .T. ) ;
#155 = CARTESIAN_POINT ( 'NONE',  ( 1.326762908760390423E-13, 1.199999999999995293, 38.00000000000000000 ) ) ;
#156 = DIRECTION ( 'NONE',  ( -3.491481338843133355E-15, 1.229791517316362731E-16, -1.000000000000000000 ) ) ;
#157 = CC_DESIGN_APPROVAL ( #32, ( #174 ) ) ;
#158 = AXIS2_PLACEMENT_3D ( 'NONE', #208, #52, #153 ) ;
#159 = CARTESIAN_POINT ( 'NONE',  ( 5.237222008264700033E-14, 1.124819836996388553E-32, 15.00000000000000000 ) ) ;
#160 = APPROVAL_ROLE ( '' ) ;
#161 = PERSON_AND_ORGANIZATION ( #11, #81 ) ;
#162 =( LENGTH_UNIT ( ) NAMED_UNIT ( * ) SI_UNIT ( .MILLI., .METRE. ) );
#163 = EDGE_LOOP ( 'NONE', ( #188 ) ) ;
#164 = ORIENTED_EDGE ( 'NONE', *, *, #86, .T. ) ;
#165 = VERTEX_POINT ( 'NONE', #149 ) ;
#166 = CARTESIAN_POINT ( 'NONE',  ( 5.237222008264700033E-14, -1.844687275974544269E-15, 15.00000000000000000 ) ) ;
#167 = ADVANCED_FACE ( 'NONE', ( #154, #139 ), #190, .T. ) ;
#168 = MANIFOLD_SOLID_BREP ( 'Corps-Déplacer/Copier1[2]', #5 ) ;
#169 = ADVANCED_FACE ( 'NONE', ( #207, #100 ), #74, .T. ) ;
#170 = AXIS2_PLACEMENT_3D ( 'NONE', #126, #66, #144 ) ;
#171 = DIRECTION ( 'NONE',  ( -5.135813185032644414E-31, -1.000000000000000000, -1.445602896647343601E-16 ) ) ;
#172 = DIRECTION ( 'NONE',  ( 0.0000000000000000000, 1.000000000000000000, 0.0000000000000000000 ) ) ;
#173 = FACE_OUTER_BOUND ( 'NONE', #183, .T. ) ;
#174 = SECURITY_CLASSIFICATION ( '', '', #180 ) ;
#175 = DIRECTION ( 'NONE',  ( -3.491481338843133355E-15, 1.229791517316362731E-16, -1.000000000000000000 ) ) ;
#176 = FACE_OUTER_BOUND ( 'NONE', #7, .T. ) ;
#177 = DIRECTION ( 'NONE',  ( -3.491481338843133355E-15, 1.224646799147353207E-16, -1.000000000000000000 ) ) ;
#178 = PERSON_AND_ORGANIZATION ( #11, #81 ) ;
#179 = CALENDAR_DATE ( 2021, 28, 10 ) ;
#180 = SECURITY_CLASSIFICATION_LEVEL ( 'unclassified' ) ;
#181 = LOCAL_TIME ( 11, 23, 29.00000000000000000, #147 ) ;
#182 = ADVANCED_FACE ( 'NONE', ( #82 ), #51, .F. ) ;
#183 = EDGE_LOOP ( 'NONE', ( #76 ) ) ;
#184 = DATE_AND_TIME ( #99, #8 ) ;
#185 = EDGE_CURVE ( 'NONE', #165, #165, #9, .T. ) ;
#186 = PRODUCT_DEFINITION ( 'UNKNOWN', '', #98, #14 ) ;
#187 = ORIENTED_EDGE ( 'NONE', *, *, #114, .F. ) ;
#188 = ORIENTED_EDGE ( 'NONE', *, *, #114, .T. ) ;
#189 = CC_DESIGN_PERSON_AND_ORGANIZATION_ASSIGNMENT ( #41, #113, ( #98 ) ) ;
#190 = CYLINDRICAL_SURFACE ( 'NONE', #170, 1.020000000000000018 ) ;
#191 = CARTESIAN_POINT ( 'NONE',  ( 5.237222008264700033E-14, -1.844687275974544269E-15, 15.00000000000000000 ) ) ;
#192 = DIRECTION ( 'NONE',  ( 0.0000000000000000000, 1.000000000000000000, 0.0000000000000000000 ) ) ;
#193 = AXIS2_PLACEMENT_3D ( 'NONE', #89, #39, #65 ) ;
#194 = VERTEX_POINT ( 'NONE', #143 ) ;
#195 = DIRECTION ( 'NONE',  ( 4.275831445896958607E-31, 1.000000000000000000, 1.224646799147353207E-16 ) ) ;
#196 = CALENDAR_DATE ( 2021, 28, 10 ) ;
#197 = PERSON_AND_ORGANIZATION ( #11, #81 ) ;
#198 = APPROVAL_ROLE ( '' ) ;
#199 = PERSON_AND_ORGANIZATION ( #11, #81 ) ;
#200 = CONICAL_SURFACE ( 'NONE', #193, 1.199999999999999956, 0.7853981633974453924 ) ;
#201 = DATE_AND_TIME ( #196, #210 ) ;
#202 = AXIS2_PLACEMENT_3D ( 'NONE', #1, #58, #221 ) ;
#203 = APPLICATION_CONTEXT ( 'configuration controlled 3d designs of mechanical parts and assemblies' ) ;
#204 = ORIENTED_EDGE ( 'NONE', *, *, #28, .T. ) ;
#205 = UNCERTAINTY_MEASURE_WITH_UNIT (LENGTH_MEASURE( 1.000000000000000082E-05 ), #162, 'distance_accuracy_value', 'NONE');
#206 = EDGE_LOOP ( 'NONE', ( #117 ) ) ;
#207 = FACE_BOUND ( 'NONE', #64, .T. ) ;
#208 = CARTESIAN_POINT ( 'NONE',  ( 1.316288464743861212E-13, -4.616918432785521081E-15, 37.69999999999999574 ) ) ;
#209 = VERTEX_POINT ( 'NONE', #19 ) ;
#210 = LOCAL_TIME ( 11, 23, 29.00000000000000000, #215 ) ;
#211 = CIRCLE ( 'NONE', #158, 1.499999999999999778 ) ;
#212 = VERTEX_POINT ( 'NONE', #57 ) ;
#213 = FACE_OUTER_BOUND ( 'NONE', #6, .T. ) ;
#214 = APPROVAL_ROLE ( '' ) ;
#215 = COORDINATED_UNIVERSAL_TIME_OFFSET ( 1, 0, .AHEAD. ) ;
#216 = DIRECTION ( 'NONE',  ( 3.491481338843133355E-15, -1.224646799147353207E-16, 1.000000000000000000 ) ) ;
#217 = CONICAL_SURFACE ( 'NONE', #55, 1.499999999999995559, 1.221730476396026388 ) ;
#218 = DIRECTION ( 'NONE',  ( 1.000000000000000000, 0.0000000000000000000, 0.0000000000000000000 ) ) ;
#219 = ADVANCED_BREP_SHAPE_REPRESENTATION ( '969261', ( #13, #168, #151 ), #70 ) ;
#220 = FACE_OUTER_BOUND ( 'NONE', #135, .T. ) ;
#221 = DIRECTION ( 'NONE',  ( 4.275831445896958607E-31, 1.000000000000000000, 1.224646799147353207E-16 ) ) ;
#222 = CARTESIAN_POINT ( 'NONE',  ( 5.862680524276271658E-14, -2.064990208390952933E-15, 16.79138438763304819 ) ) ;
#223 = DIRECTION ( 'NONE',  ( 0.0000000000000000000, -1.000000000000000000, 0.0000000000000000000 ) ) ;
ENDSEC;
END-ISO-10303-21;
