ISO-10303-21;
HEADER;
FILE_DESCRIPTION (( 'STEP AP203' ),
    '1' );
FILE_NAME ('969260.step',
    '2021-10-28T09:23:28',
    ( '' ),
    ( '' ),
    'SwSTEP 2.0',
    'SolidWorks 2019',
    '' );
FILE_SCHEMA (( 'CONFIG_CONTROL_DESIGN' ));
ENDSEC;

DATA;
#1 = APPROVAL_PERSON_ORGANIZATION ( #104, #113, #86 ) ;
#2 = EDGE_LOOP ( 'NONE', ( #209 ) ) ;
#3 = ORIENTED_EDGE ( 'NONE', *, *, #22, .F. ) ;
#4 = ADVANCED_FACE ( 'NONE', ( #89, #47 ), #9, .T. ) ;
#5 = VERTEX_POINT ( 'NONE', #148 ) ;
#6 = AXIS2_PLACEMENT_3D ( 'NONE', #76, #39, #128 ) ;
#7 = FACE_OUTER_BOUND ( 'NONE', #174, .T. ) ;
#8 = DIRECTION ( 'NONE',  ( -3.491481338843133355E-15, 1.229791517316362731E-16, -1.000000000000000000 ) ) ;
#9 = CONICAL_SURFACE ( 'NONE', #34, 1.499999999999998668, 0.2617993877991499074 ) ;
#10 = DIRECTION ( 'NONE',  ( -3.491481338843133355E-15, 1.224646799147353207E-16, -1.000000000000000000 ) ) ;
#11 = CC_DESIGN_PERSON_AND_ORGANIZATION_ASSIGNMENT ( #101, #207, ( #12 ) ) ;
#12 = PRODUCT_DEFINITION_FORMATION_WITH_SPECIFIED_SOURCE ( 'ANY', '', #223, .NOT_KNOWN. ) ;
#13 = APPLICATION_PROTOCOL_DEFINITION ( 'international standard', 'config_control_design', 1994, #159 ) ;
#14 = AXIS2_PLACEMENT_3D ( 'NONE', #178, #181, #112 ) ;
#15 = DIRECTION ( 'NONE',  ( 0.0000000000000000000, -1.000000000000000000, 0.0000000000000000000 ) ) ;
#16 = DIRECTION ( 'NONE',  ( 1.000000000000000000, 0.0000000000000000000, 0.0000000000000000000 ) ) ;
#17 = DESIGN_CONTEXT ( 'detailed design', #222, 'design' ) ;
#18 = ORIENTED_EDGE ( 'NONE', *, *, #60, .T. ) ;
#19 = CALENDAR_DATE ( 2021, 28, 10 ) ;
#20 = ORIENTED_EDGE ( 'NONE', *, *, #60, .F. ) ;
#21 = APPROVAL_STATUS ( 'not_yet_approved' ) ;
#22 = EDGE_CURVE ( 'NONE', #43, #43, #133, .T. ) ;
#23 = COORDINATED_UNIVERSAL_TIME_OFFSET ( 1, 0, .AHEAD. ) ;
#24 = CARTESIAN_POINT ( 'NONE',  ( 5.237222008264700033E-14, -1.844687275974544269E-15, 15.00000000000000000 ) ) ;
#25 = DIRECTION ( 'NONE',  ( 4.275831445896958607E-31, 1.000000000000000000, 1.224646799147353207E-16 ) ) ;
#26 = CIRCLE ( 'NONE', #14, 1.014999999999999902 ) ;
#27 = CYLINDRICAL_SURFACE ( 'NONE', #201, 1.499999999999998446 ) ;
#28 = DIRECTION ( 'NONE',  ( 3.491481338843133355E-15, -1.224646799147353207E-16, 1.000000000000000000 ) ) ;
#29 = DIRECTION ( 'NONE',  ( -4.275831445896958607E-31, -1.000000000000000000, -1.224646799147353207E-16 ) ) ;
#30 = LOCAL_TIME ( 11, 23, 28.00000000000000000, #23 ) ;
#31 = CC_DESIGN_PERSON_AND_ORGANIZATION_ASSIGNMENT ( #206, #117, ( #12 ) ) ;
#32 =( LENGTH_UNIT ( ) NAMED_UNIT ( * ) SI_UNIT ( .MILLI., .METRE. ) );
#33 = AXIS2_PLACEMENT_3D ( 'NONE', #94, #195, #29 ) ;
#34 = AXIS2_PLACEMENT_3D ( 'NONE', #122, #118, #15 ) ;
#35 = PERSON_AND_ORGANIZATION ( #50, #80 ) ;
#36 = EDGE_LOOP ( 'NONE', ( #187 ) ) ;
#37 = EDGE_LOOP ( 'NONE', ( #158 ) ) ;
#38 = VERTEX_POINT ( 'NONE', #141 ) ;
#39 = DIRECTION ( 'NONE',  ( -3.491481338843133355E-15, 1.224646799147353207E-16, -1.000000000000000000 ) ) ;
#40 = SECURITY_CLASSIFICATION ( '', '', #183 ) ;
#41 = PRODUCT_RELATED_PRODUCT_CATEGORY ( 'detail', '', ( #223 ) ) ;
#42 = CARTESIAN_POINT ( 'NONE',  ( 1.906192921252232855E-15, -6.686024735685322183E-17, 0.5459553513993090634 ) ) ;
#43 = VERTEX_POINT ( 'NONE', #91 ) ;
#44 = PERSON_AND_ORGANIZATION_ROLE ( 'design_owner' ) ;
#45 = ADVANCED_FACE ( 'NONE', ( #77 ), #212, .F. ) ;
#46 = APPROVAL_ROLE ( '' ) ;
#47 = FACE_OUTER_BOUND ( 'NONE', #139, .T. ) ;
#48 = DATE_AND_TIME ( #114, #179 ) ;
#49 = CC_DESIGN_PERSON_AND_ORGANIZATION_ASSIGNMENT ( #72, #44, ( #223 ) ) ;
#50 = PERSON ( 'UNSPECIFIED', 'UNSPECIFIED', 'UNSPECIFIED', ('UNSPECIFIED'), ('UNSPECIFIED'), ('UNSPECIFIED') ) ;
#51 = PERSON_AND_ORGANIZATION ( #50, #80 ) ;
#52 = AXIS2_PLACEMENT_3D ( 'NONE', #211, #61, #109 ) ;
#53 = ORIENTED_EDGE ( 'NONE', *, *, #87, .T. ) ;
#54 = DATE_AND_TIME ( #19, #30 ) ;
#55 = EDGE_LOOP ( 'NONE', ( #20 ) ) ;
#56 = CLOSED_SHELL ( 'NONE', ( #196, #149, #140 ) ) ;
#57 = DIRECTION ( 'NONE',  ( -4.275831445896958607E-31, -1.000000000000000000, -1.224646799147353207E-16 ) ) ;
#58 = FACE_OUTER_BOUND ( 'NONE', #154, .T. ) ;
#59 = DIRECTION ( 'NONE',  ( 0.0000000000000000000, 1.000000000000000000, 0.0000000000000000000 ) ) ;
#60 = EDGE_CURVE ( 'NONE', #38, #38, #218, .T. ) ;
#61 = DIRECTION ( 'NONE',  ( -3.491481338843133355E-15, 1.224646799147353207E-16, -1.000000000000000000 ) ) ;
#62 = AXIS2_PLACEMENT_3D ( 'NONE', #95, #143, #214 ) ;
#63 = DIRECTION ( 'NONE',  ( 3.491481338843133355E-15, -1.224646799147353207E-16, 1.000000000000000000 ) ) ;
#64 = MECHANICAL_CONTEXT ( 'NONE', #159, 'mechanical' ) ;
#65 = LOCAL_TIME ( 11, 23, 28.00000000000000000, #153 ) ;
#66 = MANIFOLD_SOLID_BREP ( 'Corps-Déplacer/Copier1[2]', #56 ) ;
#67 = AXIS2_PLACEMENT_3D ( 'NONE', #107, #125, #200 ) ;
#68 = DIRECTION ( 'NONE',  ( 0.0000000000000000000, 0.0000000000000000000, 1.000000000000000000 ) ) ;
#69 = MANIFOLD_SOLID_BREP ( 'Corps-Déplacer/Copier1[1]', #189 ) ;
#70 = APPROVAL_STATUS ( 'not_yet_approved' ) ;
#71 = ADVANCED_FACE ( 'NONE', ( #162, #164 ), #166, .T. ) ;
#72 = PERSON_AND_ORGANIZATION ( #50, #80 ) ;
#73 = LOCAL_TIME ( 11, 23, 28.00000000000000000, #173 ) ;
#74 = ORIENTED_EDGE ( 'NONE', *, *, #151, .F. ) ;
#75 = AXIS2_PLACEMENT_3D ( 'NONE', #24, #8, #197 ) ;
#76 = CARTESIAN_POINT ( 'NONE',  ( 1.326762908760390423E-13, -4.653657836759941941E-15, 38.00000000000000000 ) ) ;
#77 = FACE_OUTER_BOUND ( 'NONE', #169, .T. ) ;
#78 = CARTESIAN_POINT ( 'NONE',  ( 1.326762908760390423E-13, 8.998558695971077224E-33, 38.00000000000000000 ) ) ;
#79 = PLANE ( 'NONE',  #82 ) ;
#80 = ORGANIZATION ( 'UNSPECIFIED', 'UNSPECIFIED', '' ) ;
#81 = CALENDAR_DATE ( 2021, 28, 10 ) ;
#82 = AXIS2_PLACEMENT_3D ( 'NONE', #78, #10, #25 ) ;
#83 = APPROVAL_ROLE ( '' ) ;
#84 = COORDINATED_UNIVERSAL_TIME_OFFSET ( 1, 0, .AHEAD. ) ;
#85 = EDGE_LOOP ( 'NONE', ( #191 ) ) ;
#86 = APPROVAL_ROLE ( '' ) ;
#87 = EDGE_CURVE ( 'NONE', #105, #105, #26, .T. ) ;
#88 = CC_DESIGN_SECURITY_CLASSIFICATION ( #40, ( #12 ) ) ;
#89 = FACE_BOUND ( 'NONE', #193, .T. ) ;
#90 = SHAPE_DEFINITION_REPRESENTATION ( #97, #110 ) ;
#91 = CARTESIAN_POINT ( 'NONE',  ( 5.869195717151394378E-14, 1.499999999999996669, 16.81004464167089552 ) ) ;
#92 = APPROVAL ( #171, 'UNSPECIFIED' ) ;
#93 = CARTESIAN_POINT ( 'NONE',  ( 1.326762908760390423E-13, -4.653657836759941941E-15, 38.00000000000000000 ) ) ;
#94 = CARTESIAN_POINT ( 'NONE',  ( 5.237222008264700033E-14, 1.124819836996388553E-32, 15.00000000000000000 ) ) ;
#95 = CARTESIAN_POINT ( 'NONE',  ( 5.869195717151394378E-14, -2.067285030603624354E-15, 16.81004464167089552 ) ) ;
#96 = FACE_OUTER_BOUND ( 'NONE', #36, .T. ) ;
#97 = PRODUCT_DEFINITION_SHAPE ( 'NONE', 'NONE',  #131 ) ;
#98 = DATE_AND_TIME ( #81, #73 ) ;
#99 = VERTEX_POINT ( 'NONE', #134 ) ;
#100 = LOCAL_TIME ( 11, 23, 28.00000000000000000, #84 ) ;
#101 = PERSON_AND_ORGANIZATION ( #50, #80 ) ;
#102 = PERSON_AND_ORGANIZATION_ROLE ( 'classification_officer' ) ;
#103 = ORIENTED_EDGE ( 'NONE', *, *, #116, .T. ) ;
#104 = PERSON_AND_ORGANIZATION ( #50, #80 ) ;
#105 = VERTEX_POINT ( 'NONE', #160 ) ;
#106 = ADVANCED_FACE ( 'NONE', ( #7, #58 ), #27, .T. ) ;
#107 = CARTESIAN_POINT ( 'NONE',  ( 5.237222008264700033E-14, -1.844687275974544269E-15, 15.00000000000000000 ) ) ;
#108 = AXIS2_PLACEMENT_3D ( 'NONE', #219, #68, #16 ) ;
#109 = DIRECTION ( 'NONE',  ( 0.0000000000000000000, 1.000000000000000000, 0.0000000000000000000 ) ) ;
#110 = ADVANCED_BREP_SHAPE_REPRESENTATION ( '969260', ( #69, #66, #108 ), #150 ) ;
#111 = DIRECTION ( 'NONE',  ( 4.293794133377663121E-31, 1.000000000000000000, 1.229791517316362731E-16 ) ) ;
#112 = DIRECTION ( 'NONE',  ( -3.794935851009332049E-31, -1.000000000000000000, -1.068179480281285247E-16 ) ) ;
#113 = APPROVAL ( #21, 'UNSPECIFIED' ) ;
#114 = CALENDAR_DATE ( 2021, 28, 10 ) ;
#115 = CALENDAR_DATE ( 2021, 28, 10 ) ;
#116 = EDGE_CURVE ( 'NONE', #5, #5, #142, .T. ) ;
#117 = PERSON_AND_ORGANIZATION_ROLE ( 'creator' ) ;
#118 = DIRECTION ( 'NONE',  ( 3.491481338843133355E-15, -1.229791517316362731E-16, 1.000000000000000000 ) ) ;
#119 = APPROVAL_DATE_TIME ( #48, #215 ) ;
#120 = AXIS2_PLACEMENT_3D ( 'NONE', #147, #63, #57 ) ;
#121 = VERTEX_POINT ( 'NONE', #190 ) ;
#122 = CARTESIAN_POINT ( 'NONE',  ( 5.869195717151394378E-14, -2.067285030603624354E-15, 16.81004464167089552 ) ) ;
#123 = CC_DESIGN_APPROVAL ( #92, ( #12 ) ) ;
#124 = FACE_OUTER_BOUND ( 'NONE', #136, .T. ) ;
#125 = DIRECTION ( 'NONE',  ( -3.491481338843133355E-15, 1.229791517316362731E-16, -1.000000000000000000 ) ) ;
#126 = DIRECTION ( 'NONE',  ( 4.275831445896958607E-31, 1.000000000000000000, 1.224646799147353207E-16 ) ) ;
#127 = CC_DESIGN_APPROVAL ( #113, ( #40 ) ) ;
#128 = DIRECTION ( 'NONE',  ( 0.0000000000000000000, 1.000000000000000000, 0.0000000000000000000 ) ) ;
#129 = CYLINDRICAL_SURFACE ( 'NONE', #198, 1.014999999999999902 ) ;
#130 =( NAMED_UNIT ( * ) PLANE_ANGLE_UNIT ( ) SI_UNIT ( $, .RADIAN. ) );
#131 = PRODUCT_DEFINITION ( 'UNKNOWN', '', #12, #17 ) ;
#132 = PERSON_AND_ORGANIZATION_ROLE ( 'creator' ) ;
#133 = CIRCLE ( 'NONE', #62, 1.499999999999998668 ) ;
#134 = CARTESIAN_POINT ( 'NONE',  ( 1.326762908760390423E-13, 1.199999999999995293, 38.00000000000000000 ) ) ;
#135 = APPROVAL_DATE_TIME ( #186, #92 ) ;
#136 = EDGE_LOOP ( 'NONE', ( #53 ) ) ;
#137 = CONICAL_SURFACE ( 'NONE', #163, 1.499999999999995559, 1.221730476396026388 ) ;
#138 = APPROVAL_DATE_TIME ( #54, #113 ) ;
#139 = EDGE_LOOP ( 'NONE', ( #205 ) ) ;
#140 = ADVANCED_FACE ( 'NONE', ( #124 ), #137, .T. ) ;
#141 = CARTESIAN_POINT ( 'NONE',  ( 1.316288464743861212E-13, 1.499999999999995337, 37.69999999999999574 ) ) ;
#142 = CIRCLE ( 'NONE', #75, 1.015000000000000124 ) ;
#143 = DIRECTION ( 'NONE',  ( -3.491481338843133355E-15, 1.229791517316362731E-16, -1.000000000000000000 ) ) ;
#144 = DIRECTION ( 'NONE',  ( -5.135813185032644414E-31, -1.000000000000000000, -1.445602896647343601E-16 ) ) ;
#145 = FACE_OUTER_BOUND ( 'NONE', #37, .T. ) ;
#146 = APPROVAL_PERSON_ORGANIZATION ( #217, #92, #46 ) ;
#147 = CARTESIAN_POINT ( 'NONE',  ( 5.237222008264700033E-14, 1.124819836996388553E-32, 15.00000000000000000 ) ) ;
#148 = CARTESIAN_POINT ( 'NONE',  ( 5.237222008264700033E-14, 1.014999999999998126, 15.00000000000000000 ) ) ;
#149 = ADVANCED_FACE ( 'NONE', ( #213, #194 ), #129, .T. ) ;
#150 =( GEOMETRIC_REPRESENTATION_CONTEXT ( 3 ) GLOBAL_UNCERTAINTY_ASSIGNED_CONTEXT ( ( #157 ) ) GLOBAL_UNIT_ASSIGNED_CONTEXT ( ( #32, #130, #168 ) ) REPRESENTATION_CONTEXT ( 'NONE', 'WORKASPACE' ) );
#151 = EDGE_CURVE ( 'NONE', #121, #121, #156, .T. ) ;
#152 = APPLICATION_PROTOCOL_DEFINITION ( 'international standard', 'config_control_design', 1994, #222 ) ;
#153 = COORDINATED_UNIVERSAL_TIME_OFFSET ( 1, 0, .AHEAD. ) ;
#154 = EDGE_LOOP ( 'NONE', ( #18 ) ) ;
#155 = CALENDAR_DATE ( 2021, 28, 10 ) ;
#156 = CIRCLE ( 'NONE', #67, 1.015000000000000124 ) ;
#157 = UNCERTAINTY_MEASURE_WITH_UNIT (LENGTH_MEASURE( 1.000000000000000082E-05 ), #32, 'distance_accuracy_value', 'NONE');
#158 = ORIENTED_EDGE ( 'NONE', *, *, #116, .F. ) ;
#159 = APPLICATION_CONTEXT ( 'configuration controlled 3d designs of mechanical parts and assemblies' ) ;
#160 = CARTESIAN_POINT ( 'NONE',  ( 1.289857210047347361E-15, -1.014999999999999902, 0.3694297877802000252 ) ) ;
#161 = DIRECTION ( 'NONE',  ( -3.491481338843133355E-15, 1.224646799147353207E-16, -1.000000000000000000 ) ) ;
#162 = FACE_OUTER_BOUND ( 'NONE', #55, .T. ) ;
#163 = AXIS2_PLACEMENT_3D ( 'NONE', #42, #28, #144 ) ;
#164 = FACE_BOUND ( 'NONE', #2, .T. ) ;
#165 = CC_DESIGN_PERSON_AND_ORGANIZATION_ASSIGNMENT ( #51, #132, ( #131 ) ) ;
#166 = CONICAL_SURFACE ( 'NONE', #6, 1.199999999999999956, 0.7853981633974453924 ) ;
#167 = DATE_TIME_ROLE ( 'classification_date' ) ;
#168 =( NAMED_UNIT ( * ) SI_UNIT ( $, .STERADIAN. ) SOLID_ANGLE_UNIT ( ) );
#169 = EDGE_LOOP ( 'NONE', ( #210 ) ) ;
#170 = APPROVAL_PERSON_ORGANIZATION ( #202, #215, #83 ) ;
#171 = APPROVAL_STATUS ( 'not_yet_approved' ) ;
#172 = ADVANCED_FACE ( 'NONE', ( #96 ), #79, .F. ) ;
#173 = COORDINATED_UNIVERSAL_TIME_OFFSET ( 1, 0, .AHEAD. ) ;
#174 = EDGE_LOOP ( 'NONE', ( #3 ) ) ;
#175 = EDGE_LOOP ( 'NONE', ( #103 ) ) ;
#176 = CC_DESIGN_DATE_AND_TIME_ASSIGNMENT ( #98, #167, ( #40 ) ) ;
#177 = DIRECTION ( 'NONE',  ( -3.491481338843133355E-15, 1.229791517316362731E-16, -1.000000000000000000 ) ) ;
#178 = CARTESIAN_POINT ( 'NONE',  ( 1.289857210047347756E-15, -4.524210071147079753E-17, 0.3694297877802001362 ) ) ;
#179 = LOCAL_TIME ( 11, 23, 28.00000000000000000, #220 ) ;
#180 = CARTESIAN_POINT ( 'NONE',  ( 0.0000000000000000000, 0.0000000000000000000, 0.0000000000000000000 ) ) ;
#181 = DIRECTION ( 'NONE',  ( -3.491481338843133355E-15, 1.224646799147353207E-16, -1.000000000000000000 ) ) ;
#182 = CARTESIAN_POINT ( 'NONE',  ( 0.0000000000000000000, 0.0000000000000000000, 0.0000000000000000000 ) ) ;
#183 = SECURITY_CLASSIFICATION_LEVEL ( 'unclassified' ) ;
#184 = CC_DESIGN_DATE_AND_TIME_ASSIGNMENT ( #204, #188, ( #131 ) ) ;
#185 = CIRCLE ( 'NONE', #208, 1.199999999999999956 ) ;
#186 = DATE_AND_TIME ( #115, #65 ) ;
#187 = ORIENTED_EDGE ( 'NONE', *, *, #192, .F. ) ;
#188 = DATE_TIME_ROLE ( 'creation_date' ) ;
#189 = CLOSED_SHELL ( 'NONE', ( #106, #71, #172, #4, #45 ) ) ;
#190 = CARTESIAN_POINT ( 'NONE',  ( 5.237222008264700033E-14, 1.014999999999998126, 15.00000000000000000 ) ) ;
#191 = ORIENTED_EDGE ( 'NONE', *, *, #87, .F. ) ;
#192 = EDGE_CURVE ( 'NONE', #99, #99, #185, .T. ) ;
#193 = EDGE_LOOP ( 'NONE', ( #74 ) ) ;
#194 = FACE_OUTER_BOUND ( 'NONE', #85, .T. ) ;
#195 = DIRECTION ( 'NONE',  ( 3.491481338843133355E-15, -1.224646799147353207E-16, 1.000000000000000000 ) ) ;
#196 = ADVANCED_FACE ( 'NONE', ( #145 ), #216, .T. ) ;
#197 = DIRECTION ( 'NONE',  ( 0.0000000000000000000, 1.000000000000000000, 0.0000000000000000000 ) ) ;
#198 = AXIS2_PLACEMENT_3D ( 'NONE', #180, #177, #111 ) ;
#199 = DIRECTION ( 'NONE',  ( -3.491481338843133355E-15, 1.224646799147353207E-16, -1.000000000000000000 ) ) ;
#200 = DIRECTION ( 'NONE',  ( 0.0000000000000000000, 1.000000000000000000, 0.0000000000000000000 ) ) ;
#201 = AXIS2_PLACEMENT_3D ( 'NONE', #182, #199, #126 ) ;
#202 = PERSON_AND_ORGANIZATION ( #50, #80 ) ;
#203 = CC_DESIGN_APPROVAL ( #215, ( #131 ) ) ;
#204 = DATE_AND_TIME ( #155, #100 ) ;
#205 = ORIENTED_EDGE ( 'NONE', *, *, #22, .T. ) ;
#206 = PERSON_AND_ORGANIZATION ( #50, #80 ) ;
#207 = PERSON_AND_ORGANIZATION_ROLE ( 'design_supplier' ) ;
#208 = AXIS2_PLACEMENT_3D ( 'NONE', #93, #161, #59 ) ;
#209 = ORIENTED_EDGE ( 'NONE', *, *, #192, .T. ) ;
#210 = ORIENTED_EDGE ( 'NONE', *, *, #151, .T. ) ;
#211 = CARTESIAN_POINT ( 'NONE',  ( 1.316288464743861212E-13, -4.616918432785521081E-15, 37.69999999999999574 ) ) ;
#212 = PLANE ( 'NONE',  #33 ) ;
#213 = FACE_OUTER_BOUND ( 'NONE', #175, .T. ) ;
#214 = DIRECTION ( 'NONE',  ( 0.0000000000000000000, 1.000000000000000000, 0.0000000000000000000 ) ) ;
#215 = APPROVAL ( #70, 'UNSPECIFIED' ) ;
#216 = PLANE ( 'NONE',  #120 ) ;
#217 = PERSON_AND_ORGANIZATION ( #50, #80 ) ;
#218 = CIRCLE ( 'NONE', #52, 1.499999999999999778 ) ;
#219 = CARTESIAN_POINT ( 'NONE',  ( 0.0000000000000000000, 0.0000000000000000000, 0.0000000000000000000 ) ) ;
#220 = COORDINATED_UNIVERSAL_TIME_OFFSET ( 1, 0, .AHEAD. ) ;
#221 = CC_DESIGN_PERSON_AND_ORGANIZATION_ASSIGNMENT ( #35, #102, ( #40 ) ) ;
#222 = APPLICATION_CONTEXT ( 'configuration controlled 3d designs of mechanical parts and assemblies' ) ;
#223 = PRODUCT ( '969260', '969260', '', ( #64 ) ) ;
ENDSEC;
END-ISO-10303-21;
