ISO-10303-21;
HEADER;
FILE_DESCRIPTION (( 'STEP AP203' ),
    '1' );
FILE_NAME ('969259.step',
    '2021-10-28T09:23:27',
    ( '' ),
    ( '' ),
    'SwSTEP 2.0',
    'SolidWorks 2019',
    '' );
FILE_SCHEMA (( 'CONFIG_CONTROL_DESIGN' ));
ENDSEC;

DATA;
#1 = EDGE_LOOP ( 'NONE', ( #123 ) ) ;
#2 = LOCAL_TIME ( 11, 23, 27.00000000000000000, #157 ) ;
#3 = EDGE_LOOP ( 'NONE', ( #5 ) ) ;
#4 = EDGE_LOOP ( 'NONE', ( #38 ) ) ;
#5 = ORIENTED_EDGE ( 'NONE', *, *, #211, .F. ) ;
#6 = AXIS2_PLACEMENT_3D ( 'NONE', #46, #25, #193 ) ;
#7 = CARTESIAN_POINT ( 'NONE',  ( 4.189777606611760026E-14, 1.124819836996388690E-32, 12.00000000000000000 ) ) ;
#8 = CARTESIAN_POINT ( 'NONE',  ( 1.326762908760390423E-13, -4.653657836759941941E-15, 38.00000000000000000 ) ) ;
#9 = CLOSED_SHELL ( 'NONE', ( #120, #201, #166 ) ) ;
#10 = FACE_OUTER_BOUND ( 'NONE', #91, .T. ) ;
#11 = DIRECTION ( 'NONE',  ( 3.491481338843133355E-15, -1.224646799147353207E-16, 1.000000000000000000 ) ) ;
#12 = FACE_OUTER_BOUND ( 'NONE', #19, .T. ) ;
#13 = DATE_AND_TIME ( #84, #90 ) ;
#14 = CONICAL_SURFACE ( 'NONE', #72, 1.199999999999999956, 0.7853981633974453924 ) ;
#15 = COORDINATED_UNIVERSAL_TIME_OFFSET ( 1, 0, .AHEAD. ) ;
#16 =( NAMED_UNIT ( * ) PLANE_ANGLE_UNIT ( ) SI_UNIT ( $, .RADIAN. ) );
#17 = CIRCLE ( 'NONE', #141, 1.499999999999998446 ) ;
#18 = PERSON_AND_ORGANIZATION ( #161, #153 ) ;
#19 = EDGE_LOOP ( 'NONE', ( #88 ) ) ;
#20 = ORIENTED_EDGE ( 'NONE', *, *, #171, .F. ) ;
#21 = EDGE_CURVE ( 'NONE', #126, #126, #164, .T. ) ;
#22 = CYLINDRICAL_SURFACE ( 'NONE', #6, 0.8350000000000000755 ) ;
#23 = CC_DESIGN_DATE_AND_TIME_ASSIGNMENT ( #63, #130, ( #32 ) ) ;
#24 = FACE_OUTER_BOUND ( 'NONE', #1, .T. ) ;
#25 = DIRECTION ( 'NONE',  ( -3.491481338843133355E-15, 1.229791517316362731E-16, -1.000000000000000000 ) ) ;
#26 = CLOSED_SHELL ( 'NONE', ( #155, #194, #112, #169, #216 ) ) ;
#27 = DIRECTION ( 'NONE',  ( 0.0000000000000000000, 1.000000000000000000, 0.0000000000000000000 ) ) ;
#28 = CARTESIAN_POINT ( 'NONE',  ( 1.326762908760390423E-13, 1.199999999999995293, 38.00000000000000000 ) ) ;
#29 = PERSON_AND_ORGANIZATION ( #161, #153 ) ;
#30 = PERSON_AND_ORGANIZATION ( #161, #153 ) ;
#31 = COORDINATED_UNIVERSAL_TIME_OFFSET ( 1, 0, .AHEAD. ) ;
#32 = SECURITY_CLASSIFICATION ( '', '', #99 ) ;
#33 = AXIS2_PLACEMENT_3D ( 'NONE', #167, #11, #214 ) ;
#34 = DIRECTION ( 'NONE',  ( -3.491481338843133355E-15, 1.229791517316362731E-16, -1.000000000000000000 ) ) ;
#35 = APPROVAL ( #134, 'UNSPECIFIED' ) ;
#36 = APPROVAL_DATE_TIME ( #52, #219 ) ;
#37 = ORIENTED_EDGE ( 'NONE', *, *, #160, .T. ) ;
#38 = ORIENTED_EDGE ( 'NONE', *, *, #171, .T. ) ;
#39 = AXIS2_PLACEMENT_3D ( 'NONE', #7, #73, #107 ) ;
#40 = CARTESIAN_POINT ( 'NONE',  ( 4.189777606611760026E-14, 0.8349999999999985212, 12.00000000000000000 ) ) ;
#41 = EDGE_CURVE ( 'NONE', #55, #55, #17, .T. ) ;
#42 = PLANE ( 'NONE',  #39 ) ;
#43 = CYLINDRICAL_SURFACE ( 'NONE', #132, 1.499999999999998224 ) ;
#44 = CONICAL_SURFACE ( 'NONE', #96, 1.499999999999998446, 0.2617993877991500740 ) ;
#45 = CARTESIAN_POINT ( 'NONE',  ( 5.056298259002794677E-14, -1.780961175064869450E-15, 14.48181378703329258 ) ) ;
#46 = CARTESIAN_POINT ( 'NONE',  ( 0.0000000000000000000, 0.0000000000000000000, 0.0000000000000000000 ) ) ;
#47 = DIRECTION ( 'NONE',  ( 0.0000000000000000000, 0.0000000000000000000, 1.000000000000000000 ) ) ;
#48 = COORDINATED_UNIVERSAL_TIME_OFFSET ( 1, 0, .AHEAD. ) ;
#49 = CC_DESIGN_PERSON_AND_ORGANIZATION_ASSIGNMENT ( #30, #203, ( #61 ) ) ;
#50 = AXIS2_PLACEMENT_3D ( 'NONE', #205, #121, #119 ) ;
#51 = CALENDAR_DATE ( 2021, 28, 10 ) ;
#52 = DATE_AND_TIME ( #51, #2 ) ;
#53 = CC_DESIGN_PERSON_AND_ORGANIZATION_ASSIGNMENT ( #148, #217, ( #32 ) ) ;
#54 = AXIS2_PLACEMENT_3D ( 'NONE', #163, #175, #159 ) ;
#55 = VERTEX_POINT ( 'NONE', #108 ) ;
#56 = CIRCLE ( 'NONE', #197, 1.199999999999999956 ) ;
#57 = FACE_OUTER_BOUND ( 'NONE', #156, .T. ) ;
#58 = CARTESIAN_POINT ( 'NONE',  ( 4.189777606611760026E-14, -1.475749820779635178E-15, 12.00000000000000000 ) ) ;
#59 = DIRECTION ( 'NONE',  ( 0.0000000000000000000, 1.000000000000000000, 0.0000000000000000000 ) ) ;
#60 = APPROVAL_PERSON_ORGANIZATION ( #29, #219, #140 ) ;
#61 = PRODUCT ( '969259', '969259', '', ( #133 ) ) ;
#62 = DIRECTION ( 'NONE',  ( 3.491481338843133355E-15, -1.229791517316362731E-16, 1.000000000000000000 ) ) ;
#63 = DATE_AND_TIME ( #149, #158 ) ;
#64 = CALENDAR_DATE ( 2021, 28, 10 ) ;
#65 = AXIS2_PLACEMENT_3D ( 'NONE', #144, #176, #59 ) ;
#66 = PERSON_AND_ORGANIZATION_ROLE ( 'creator' ) ;
#67 = LOCAL_TIME ( 11, 23, 27.00000000000000000, #218 ) ;
#68 = DESIGN_CONTEXT ( 'detailed design', #135, 'design' ) ;
#69 = MANIFOLD_SOLID_BREP ( 'Corps-Déplacer/Copier1[1]', #26 ) ;
#70 = EDGE_LOOP ( 'NONE', ( #138 ) ) ;
#71 = ORIENTED_EDGE ( 'NONE', *, *, #41, .T. ) ;
#72 = AXIS2_PLACEMENT_3D ( 'NONE', #98, #74, #129 ) ;
#73 = DIRECTION ( 'NONE',  ( 3.491481338843133355E-15, -1.224646799147353207E-16, 1.000000000000000000 ) ) ;
#74 = DIRECTION ( 'NONE',  ( -3.491481338843133355E-15, 1.224646799147353207E-16, -1.000000000000000000 ) ) ;
#75 = DIRECTION ( 'NONE',  ( 0.0000000000000000000, 1.000000000000000000, 0.0000000000000000000 ) ) ;
#76 = EDGE_CURVE ( 'NONE', #124, #124, #151, .T. ) ;
#77 = DIRECTION ( 'NONE',  ( -5.135813185032644414E-31, -1.000000000000000000, -1.445602896647343601E-16 ) ) ;
#78 = FACE_OUTER_BOUND ( 'NONE', #102, .T. ) ;
#79 = CIRCLE ( 'NONE', #65, 0.8350000000000000755 ) ;
#80 = DATE_TIME_ROLE ( 'creation_date' ) ;
#81 = UNCERTAINTY_MEASURE_WITH_UNIT (LENGTH_MEASURE( 1.000000000000000082E-05 ), #222, 'distance_accuracy_value', 'NONE');
#82 = APPROVAL ( #116, 'UNSPECIFIED' ) ;
#83 = PERSON_AND_ORGANIZATION ( #161, #153 ) ;
#84 = CALENDAR_DATE ( 2021, 28, 10 ) ;
#85 = APPLICATION_PROTOCOL_DEFINITION ( 'international standard', 'config_control_design', 1994, #199 ) ;
#86 = CC_DESIGN_APPROVAL ( #35, ( #115 ) ) ;
#87 = PERSON_AND_ORGANIZATION ( #161, #153 ) ;
#88 = ORIENTED_EDGE ( 'NONE', *, *, #41, .F. ) ;
#89 = PRODUCT_RELATED_PRODUCT_CATEGORY ( 'detail', '', ( #61 ) ) ;
#90 = LOCAL_TIME ( 11, 23, 27.00000000000000000, #48 ) ;
#91 = EDGE_LOOP ( 'NONE', ( #37 ) ) ;
#92 = DIRECTION ( 'NONE',  ( -3.491481338843133355E-15, 1.224646799147353207E-16, -1.000000000000000000 ) ) ;
#93 = DIRECTION ( 'NONE',  ( 4.275831445896958607E-31, 1.000000000000000000, 1.224646799147353207E-16 ) ) ;
#94 = CC_DESIGN_DATE_AND_TIME_ASSIGNMENT ( #168, #80, ( #115 ) ) ;
#95 = DIRECTION ( 'NONE',  ( -3.491481338843133355E-15, 1.229791517316362731E-16, -1.000000000000000000 ) ) ;
#96 = AXIS2_PLACEMENT_3D ( 'NONE', #45, #62, #180 ) ;
#97 = FACE_OUTER_BOUND ( 'NONE', #139, .T. ) ;
#98 = CARTESIAN_POINT ( 'NONE',  ( 1.326762908760390423E-13, -4.653657836759941941E-15, 38.00000000000000000 ) ) ;
#99 = SECURITY_CLASSIFICATION_LEVEL ( 'unclassified' ) ;
#100 = PERSON_AND_ORGANIZATION ( #161, #153 ) ;
#101 = APPROVAL_ROLE ( '' ) ;
#102 = EDGE_LOOP ( 'NONE', ( #142 ) ) ;
#103 = ORIENTED_EDGE ( 'NONE', *, *, #76, .F. ) ;
#104 = CC_DESIGN_APPROVAL ( #82, ( #210 ) ) ;
#105 = DIRECTION ( 'NONE',  ( -3.491481338843133355E-15, 1.224646799147353207E-16, -1.000000000000000000 ) ) ;
#106 = ADVANCED_BREP_SHAPE_REPRESENTATION ( '969259', ( #69, #221, #207 ), #179 ) ;
#107 = DIRECTION ( 'NONE',  ( -4.275831445896958607E-31, -1.000000000000000000, -1.224646799147353207E-16 ) ) ;
#108 = CARTESIAN_POINT ( 'NONE',  ( 5.056298259002794677E-14, 1.499999999999996669, 14.48181378703329258 ) ) ;
#109 = LOCAL_TIME ( 11, 23, 27.00000000000000000, #31 ) ;
#110 = DIRECTION ( 'NONE',  ( -3.491481338843133355E-15, 1.224646799147353207E-16, -1.000000000000000000 ) ) ;
#111 = DIRECTION ( 'NONE',  ( 1.000000000000000000, 0.0000000000000000000, 0.0000000000000000000 ) ) ;
#112 = ADVANCED_FACE ( 'NONE', ( #97 ), #146, .F. ) ;
#113 = PERSON_AND_ORGANIZATION_ROLE ( 'design_supplier' ) ;
#114 = CARTESIAN_POINT ( 'NONE',  ( 1.316288464743861212E-13, 1.499999999999995337, 37.69999999999999574 ) ) ;
#115 = PRODUCT_DEFINITION ( 'UNKNOWN', '', #210, #68 ) ;
#116 = APPROVAL_STATUS ( 'not_yet_approved' ) ;
#117 = VERTEX_POINT ( 'NONE', #28 ) ;
#118 = CC_DESIGN_SECURITY_CLASSIFICATION ( #32, ( #210 ) ) ;
#119 = DIRECTION ( 'NONE',  ( -4.613005854819726474E-31, -1.000000000000000000, -1.298445715551502282E-16 ) ) ;
#120 = ADVANCED_FACE ( 'NONE', ( #195 ), #198, .T. ) ;
#121 = DIRECTION ( 'NONE',  ( -3.491481338843133355E-15, 1.224646799147353207E-16, -1.000000000000000000 ) ) ;
#122 = CC_DESIGN_PERSON_AND_ORGANIZATION_ASSIGNMENT ( #18, #66, ( #210 ) ) ;
#123 = ORIENTED_EDGE ( 'NONE', *, *, #211, .T. ) ;
#124 = VERTEX_POINT ( 'NONE', #178 ) ;
#125 = FACE_OUTER_BOUND ( 'NONE', #70, .T. ) ;
#126 = VERTEX_POINT ( 'NONE', #145 ) ;
#127 = DIRECTION ( 'NONE',  ( 3.491481338843133355E-15, -1.224646799147353207E-16, 1.000000000000000000 ) ) ;
#128 = CIRCLE ( 'NONE', #54, 1.499999999999999778 ) ;
#129 = DIRECTION ( 'NONE',  ( 0.0000000000000000000, 1.000000000000000000, 0.0000000000000000000 ) ) ;
#130 = DATE_TIME_ROLE ( 'classification_date' ) ;
#131 = APPROVAL_STATUS ( 'not_yet_approved' ) ;
#132 = AXIS2_PLACEMENT_3D ( 'NONE', #213, #110, #162 ) ;
#133 = MECHANICAL_CONTEXT ( 'NONE', #199, 'mechanical' ) ;
#134 = APPROVAL_STATUS ( 'not_yet_approved' ) ;
#135 = APPLICATION_CONTEXT ( 'configuration controlled 3d designs of mechanical parts and assemblies' ) ;
#136 = APPROVAL_ROLE ( '' ) ;
#137 = AXIS2_PLACEMENT_3D ( 'NONE', #165, #92, #93 ) ;
#138 = ORIENTED_EDGE ( 'NONE', *, *, #76, .T. ) ;
#139 = EDGE_LOOP ( 'NONE', ( #20 ) ) ;
#140 = APPROVAL_ROLE ( '' ) ;
#141 = AXIS2_PLACEMENT_3D ( 'NONE', #187, #34, #75 ) ;
#142 = ORIENTED_EDGE ( 'NONE', *, *, #21, .T. ) ;
#143 = DIRECTION ( 'NONE',  ( 0.0000000000000000000, 1.000000000000000000, 0.0000000000000000000 ) ) ;
#144 = CARTESIAN_POINT ( 'NONE',  ( 4.189777606611760026E-14, -1.475749820779635178E-15, 12.00000000000000000 ) ) ;
#145 = CARTESIAN_POINT ( 'NONE',  ( 1.061114059497078945E-15, -0.8350000000000000755, 0.3039151456122827777 ) ) ;
#146 = PLANE ( 'NONE',  #137 ) ;
#147 = CARTESIAN_POINT ( 'NONE',  ( 1.906192921252232855E-15, -6.686024735685322183E-17, 0.5459553513993090634 ) ) ;
#148 = PERSON_AND_ORGANIZATION ( #161, #153 ) ;
#149 = CALENDAR_DATE ( 2021, 28, 10 ) ;
#150 = PERSON_AND_ORGANIZATION_ROLE ( 'creator' ) ;
#151 = CIRCLE ( 'NONE', #174, 0.8350000000000000755 ) ;
#152 = APPLICATION_PROTOCOL_DEFINITION ( 'international standard', 'config_control_design', 1994, #135 ) ;
#153 = ORGANIZATION ( 'UNSPECIFIED', 'UNSPECIFIED', '' ) ;
#154 = ORIENTED_EDGE ( 'NONE', *, *, #21, .F. ) ;
#155 = ADVANCED_FACE ( 'NONE', ( #12, #24 ), #43, .T. ) ;
#156 = EDGE_LOOP ( 'NONE', ( #154 ) ) ;
#157 = COORDINATED_UNIVERSAL_TIME_OFFSET ( 1, 0, .AHEAD. ) ;
#158 = LOCAL_TIME ( 11, 23, 27.00000000000000000, #15 ) ;
#159 = DIRECTION ( 'NONE',  ( 0.0000000000000000000, 1.000000000000000000, 0.0000000000000000000 ) ) ;
#160 = EDGE_CURVE ( 'NONE', #192, #192, #79, .T. ) ;
#161 = PERSON ( 'UNSPECIFIED', 'UNSPECIFIED', 'UNSPECIFIED', ('UNSPECIFIED'), ('UNSPECIFIED'), ('UNSPECIFIED') ) ;
#162 = DIRECTION ( 'NONE',  ( 4.275831445896958607E-31, 1.000000000000000000, 1.224646799147353207E-16 ) ) ;
#163 = CARTESIAN_POINT ( 'NONE',  ( 1.316288464743861212E-13, -4.616918432785521081E-15, 37.69999999999999574 ) ) ;
#164 = CIRCLE ( 'NONE', #50, 0.8350000000000000755 ) ;
#165 = CARTESIAN_POINT ( 'NONE',  ( 1.326762908760390423E-13, 8.998558695971077224E-33, 38.00000000000000000 ) ) ;
#166 = ADVANCED_FACE ( 'NONE', ( #78 ), #189, .T. ) ;
#167 = CARTESIAN_POINT ( 'NONE',  ( 4.189777606611760026E-14, 1.124819836996388690E-32, 12.00000000000000000 ) ) ;
#168 = DATE_AND_TIME ( #64, #67 ) ;
#169 = ADVANCED_FACE ( 'NONE', ( #177, #196 ), #44, .T. ) ;
#170 = CARTESIAN_POINT ( 'NONE',  ( 0.0000000000000000000, 0.0000000000000000000, 0.0000000000000000000 ) ) ;
#171 = EDGE_CURVE ( 'NONE', #117, #117, #56, .T. ) ;
#172 = CC_DESIGN_PERSON_AND_ORGANIZATION_ASSIGNMENT ( #83, #150, ( #115 ) ) ;
#173 = EDGE_LOOP ( 'NONE', ( #103 ) ) ;
#174 = AXIS2_PLACEMENT_3D ( 'NONE', #58, #95, #143 ) ;
#175 = DIRECTION ( 'NONE',  ( -3.491481338843133355E-15, 1.224646799147353207E-16, -1.000000000000000000 ) ) ;
#176 = DIRECTION ( 'NONE',  ( -3.491481338843133355E-15, 1.229791517316362731E-16, -1.000000000000000000 ) ) ;
#177 = FACE_BOUND ( 'NONE', #190, .T. ) ;
#178 = CARTESIAN_POINT ( 'NONE',  ( 4.189777606611760026E-14, 0.8349999999999985212, 12.00000000000000000 ) ) ;
#179 =( GEOMETRIC_REPRESENTATION_CONTEXT ( 3 ) GLOBAL_UNCERTAINTY_ASSIGNED_CONTEXT ( ( #81 ) ) GLOBAL_UNIT_ASSIGNED_CONTEXT ( ( #222, #16, #183 ) ) REPRESENTATION_CONTEXT ( 'NONE', 'WORKASPACE' ) );
#180 = DIRECTION ( 'NONE',  ( 0.0000000000000000000, -1.000000000000000000, 0.0000000000000000000 ) ) ;
#181 = APPROVAL_DATE_TIME ( #13, #35 ) ;
#182 = CC_DESIGN_PERSON_AND_ORGANIZATION_ASSIGNMENT ( #87, #113, ( #210 ) ) ;
#183 =( NAMED_UNIT ( * ) SI_UNIT ( $, .STERADIAN. ) SOLID_ANGLE_UNIT ( ) );
#184 = DATE_AND_TIME ( #223, #109 ) ;
#185 = PERSON_AND_ORGANIZATION ( #161, #153 ) ;
#186 = CC_DESIGN_APPROVAL ( #219, ( #32 ) ) ;
#187 = CARTESIAN_POINT ( 'NONE',  ( 5.056298259002794677E-14, -1.780961175064869450E-15, 14.48181378703329258 ) ) ;
#188 = SHAPE_DEFINITION_REPRESENTATION ( #220, #106 ) ;
#189 = CONICAL_SURFACE ( 'NONE', #204, 1.499999999999995559, 1.221730476396026388 ) ;
#190 = EDGE_LOOP ( 'NONE', ( #206 ) ) ;
#191 = APPROVAL_PERSON_ORGANIZATION ( #185, #82, #101 ) ;
#192 = VERTEX_POINT ( 'NONE', #40 ) ;
#193 = DIRECTION ( 'NONE',  ( 4.293794133377662246E-31, 1.000000000000000000, 1.229791517316362484E-16 ) ) ;
#194 = ADVANCED_FACE ( 'NONE', ( #212, #209 ), #14, .T. ) ;
#195 = FACE_OUTER_BOUND ( 'NONE', #173, .T. ) ;
#196 = FACE_OUTER_BOUND ( 'NONE', #208, .T. ) ;
#197 = AXIS2_PLACEMENT_3D ( 'NONE', #8, #105, #27 ) ;
#198 = PLANE ( 'NONE',  #33 ) ;
#199 = APPLICATION_CONTEXT ( 'configuration controlled 3d designs of mechanical parts and assemblies' ) ;
#200 = APPROVAL_DATE_TIME ( #184, #82 ) ;
#201 = ADVANCED_FACE ( 'NONE', ( #125, #57 ), #22, .T. ) ;
#202 = VERTEX_POINT ( 'NONE', #114 ) ;
#203 = PERSON_AND_ORGANIZATION_ROLE ( 'design_owner' ) ;
#204 = AXIS2_PLACEMENT_3D ( 'NONE', #147, #127, #77 ) ;
#205 = CARTESIAN_POINT ( 'NONE',  ( 1.061114059497079340E-15, -3.721887102864839464E-17, 0.3039151456122828887 ) ) ;
#206 = ORIENTED_EDGE ( 'NONE', *, *, #160, .F. ) ;
#207 = AXIS2_PLACEMENT_3D ( 'NONE', #170, #47, #111 ) ;
#208 = EDGE_LOOP ( 'NONE', ( #71 ) ) ;
#209 = FACE_BOUND ( 'NONE', #4, .T. ) ;
#210 = PRODUCT_DEFINITION_FORMATION_WITH_SPECIFIED_SOURCE ( 'ANY', '', #61, .NOT_KNOWN. ) ;
#211 = EDGE_CURVE ( 'NONE', #202, #202, #128, .T. ) ;
#212 = FACE_OUTER_BOUND ( 'NONE', #3, .T. ) ;
#213 = CARTESIAN_POINT ( 'NONE',  ( 0.0000000000000000000, 0.0000000000000000000, 0.0000000000000000000 ) ) ;
#214 = DIRECTION ( 'NONE',  ( -4.275831445896958607E-31, -1.000000000000000000, -1.224646799147353207E-16 ) ) ;
#215 = APPROVAL_PERSON_ORGANIZATION ( #100, #35, #136 ) ;
#216 = ADVANCED_FACE ( 'NONE', ( #10 ), #42, .F. ) ;
#217 = PERSON_AND_ORGANIZATION_ROLE ( 'classification_officer' ) ;
#218 = COORDINATED_UNIVERSAL_TIME_OFFSET ( 1, 0, .AHEAD. ) ;
#219 = APPROVAL ( #131, 'UNSPECIFIED' ) ;
#220 = PRODUCT_DEFINITION_SHAPE ( 'NONE', 'NONE',  #115 ) ;
#221 = MANIFOLD_SOLID_BREP ( 'Corps-Déplacer/Copier1[2]', #9 ) ;
#222 =( LENGTH_UNIT ( ) NAMED_UNIT ( * ) SI_UNIT ( .MILLI., .METRE. ) );
#223 = CALENDAR_DATE ( 2021, 28, 10 ) ;
ENDSEC;
END-ISO-10303-21;
