ISO-10303-21;
HEADER;
FILE_DESCRIPTION (( 'STEP AP203' ),
    '1' );
FILE_NAME ('969074.step',
    '2021-11-30T13:08:13',
    ( '' ),
    ( '' ),
    'SwSTEP 2.0',
    'SolidWorks 2019',
    '' );
FILE_SCHEMA (( 'CONFIG_CONTROL_DESIGN' ));
ENDSEC;

DATA;
#1 = CARTESIAN_POINT ( 'NONE',  ( 1.955229549752154679E-13, 0.9999999999999985567, 56.00000000000000000 ) ) ;
#2 = FACE_OUTER_BOUND ( 'NONE', #91, .T. ) ;
#3 = AXIS2_PLACEMENT_3D ( 'NONE', #55, #147, #149 ) ;
#4 = VERTEX_POINT ( 'NONE', #133 ) ;
#5 = EDGE_LOOP ( 'NONE', ( #16 ) ) ;
#6 = CC_DESIGN_PERSON_AND_ORGANIZATION_ASSIGNMENT ( #112, #174, ( #81 ) ) ;
#7 = APPROVAL_STATUS ( 'not_yet_approved' ) ;
#8 = APPLICATION_PROTOCOL_DEFINITION ( 'international standard', 'config_control_design', 1994, #196 ) ;
#9 = DIRECTION ( 'NONE',  ( -3.491481338843133355E-15, 1.224646799147353207E-16, -1.000000000000000000 ) ) ;
#10 = COORDINATED_UNIVERSAL_TIME_OFFSET ( 1, 0, .AHEAD. ) ;
#11 = ORIENTED_EDGE ( 'NONE', *, *, #169, .T. ) ;
#12 = DATE_AND_TIME ( #173, #197 ) ;
#13 = PERSON_AND_ORGANIZATION_ROLE ( 'creator' ) ;
#14 = ORIENTED_EDGE ( 'NONE', *, *, #135, .F. ) ;
#15 = PERSON_AND_ORGANIZATION ( #70, #122 ) ;
#16 = ORIENTED_EDGE ( 'NONE', *, *, #135, .T. ) ;
#17 = ORIENTED_EDGE ( 'NONE', *, *, #120, .T. ) ;
#18 = APPROVAL ( #68, 'UNSPECIFIED' ) ;
#19 = DIRECTION ( 'NONE',  ( 0.0000000000000000000, 1.000000000000000000, 0.0000000000000000000 ) ) ;
#20 = DIRECTION ( 'NONE',  ( -3.491481338843133355E-15, 1.224646799147353207E-16, -1.000000000000000000 ) ) ;
#21 = ADVANCED_FACE ( 'NONE', ( #123, #205 ), #131, .T. ) ;
#22 = DIRECTION ( 'NONE',  ( 0.0000000000000000000, 1.000000000000000000, 0.0000000000000000000 ) ) ;
#23 = CC_DESIGN_APPROVAL ( #18, ( #45 ) ) ;
#24 = DIRECTION ( 'NONE',  ( -3.491481338843133355E-15, 1.224646799147353207E-16, -1.000000000000000000 ) ) ;
#25 = CARTESIAN_POINT ( 'NONE',  ( 7.127193717966706633E-14, -2.499883037181886074E-15, 20.41309411760519055 ) ) ;
#26 =( LENGTH_UNIT ( ) NAMED_UNIT ( * ) SI_UNIT ( .MILLI., .METRE. ) );
#27 = DIRECTION ( 'NONE',  ( 0.0000000000000000000, 1.000000000000000000, 0.0000000000000000000 ) ) ;
#28 = ADVANCED_FACE ( 'NONE', ( #111, #49 ), #187, .T. ) ;
#29 = PERSON_AND_ORGANIZATION ( #70, #122 ) ;
#30 = DIRECTION ( 'NONE',  ( 3.881618967525506505E-31, 1.000000000000000000, 1.092578608483882532E-16 ) ) ;
#31 = CARTESIAN_POINT ( 'NONE',  ( 0.0000000000000000000, 0.0000000000000000000, 0.0000000000000000000 ) ) ;
#32 = APPROVAL_STATUS ( 'not_yet_approved' ) ;
#33 = APPROVAL_DATE_TIME ( #47, #239 ) ;
#34 = CC_DESIGN_APPROVAL ( #141, ( #85 ) ) ;
#35 = COORDINATED_UNIVERSAL_TIME_OFFSET ( 1, 0, .AHEAD. ) ;
#36 = FACE_BOUND ( 'NONE', #118, .T. ) ;
#37 = EDGE_CURVE ( 'NONE', #160, #160, #212, .T. ) ;
#38 = CIRCLE ( 'NONE', #163, 1.249999999999996003 ) ;
#39 = ADVANCED_FACE ( 'NONE', ( #234 ), #98, .F. ) ;
#40 = CARTESIAN_POINT ( 'NONE',  ( 1.955229549752154679E-13, -6.858022075225178552E-15, 56.00000000000000000 ) ) ;
#41 = FACE_OUTER_BOUND ( 'NONE', #156, .T. ) ;
#42 = FACE_OUTER_BOUND ( 'NONE', #5, .T. ) ;
#43 = CARTESIAN_POINT ( 'NONE',  ( -7.550727964885310958E-32, 2.648438853318659235E-33, -2.162614441292465186E-17 ) ) ;
#44 = ADVANCED_FACE ( 'NONE', ( #204 ), #72, .T. ) ;
#45 = PRODUCT_DEFINITION_FORMATION_WITH_SPECIFIED_SOURCE ( 'ANY', '', #81, .NOT_KNOWN. ) ;
#46 = DIRECTION ( 'NONE',  ( 4.275831445896958607E-31, 1.000000000000000000, 1.224646799147353207E-16 ) ) ;
#47 = DATE_AND_TIME ( #150, #101 ) ;
#48 = PRODUCT_DEFINITION_SHAPE ( 'NONE', 'NONE',  #191 ) ;
#49 = FACE_OUTER_BOUND ( 'NONE', #115, .T. ) ;
#50 = AXIS2_PLACEMENT_3D ( 'NONE', #43, #184, #71 ) ;
#51 = CALENDAR_DATE ( 2021, 30, 11 ) ;
#52 = EDGE_LOOP ( 'NONE', ( #11 ) ) ;
#53 = EDGE_LOOP ( 'NONE', ( #221 ) ) ;
#54 = CIRCLE ( 'NONE', #166, 1.250000000000005329 ) ;
#55 = CARTESIAN_POINT ( 'NONE',  ( 7.127193717966706633E-14, -2.499883037181886074E-15, 20.41309411760519055 ) ) ;
#56 = CALENDAR_DATE ( 2021, 30, 11 ) ;
#57 = ORIENTED_EDGE ( 'NONE', *, *, #193, .F. ) ;
#58 = MANIFOLD_SOLID_BREP ( 'Corps-Déplacer/Copier1[1]', #178 ) ;
#59 = CARTESIAN_POINT ( 'NONE',  ( 1.946500846405046877E-13, -6.827405905246494765E-15, 55.75000000000000000 ) ) ;
#60 = VERTEX_POINT ( 'NONE', #125 ) ;
#61 = PERSON_AND_ORGANIZATION_ROLE ( 'classification_officer' ) ;
#62 = AXIS2_PLACEMENT_3D ( 'NONE', #31, #190, #46 ) ;
#63 = ADVANCED_FACE ( 'NONE', ( #42 ), #95, .F. ) ;
#64 = PERSON_AND_ORGANIZATION_ROLE ( 'design_supplier' ) ;
#65 = CARTESIAN_POINT ( 'NONE',  ( 8.728703347107827472E-16, -3.061616997868381169E-17, 0.2499999999999998335 ) ) ;
#66 = CARTESIAN_POINT ( 'NONE',  ( 7.127193717966706633E-14, 1.249999999999993339, 20.41309411760519055 ) ) ;
#67 = APPROVAL_PERSON_ORGANIZATION ( #192, #239, #168 ) ;
#68 = APPROVAL_STATUS ( 'not_yet_approved' ) ;
#69 = CARTESIAN_POINT ( 'NONE',  ( 0.0000000000000000000, 0.0000000000000000000, 0.0000000000000000000 ) ) ;
#70 = PERSON ( 'UNSPECIFIED', 'UNSPECIFIED', 'UNSPECIFIED', ('UNSPECIFIED'), ('UNSPECIFIED'), ('UNSPECIFIED') ) ;
#71 = DIRECTION ( 'NONE',  ( -4.275831445896958607E-31, -1.000000000000000000, -1.224646799147353207E-16 ) ) ;
#72 = PLANE ( 'NONE',  #195 ) ;
#73 = CARTESIAN_POINT ( 'NONE',  ( 8.728703347107833388E-16, 1.488499999999997714, 0.2500000000000000000 ) ) ;
#74 = FACE_BOUND ( 'NONE', #177, .T. ) ;
#75 = UNCERTAINTY_MEASURE_WITH_UNIT (LENGTH_MEASURE( 1.000000000000000082E-05 ), #26, 'distance_accuracy_value', 'NONE');
#76 = DIRECTION ( 'NONE',  ( 0.0000000000000000000, 1.000000000000000000, 0.0000000000000000000 ) ) ;
#77 = VERTEX_POINT ( 'NONE', #66 ) ;
#78 = SHAPE_DEFINITION_REPRESENTATION ( #48, #87 ) ;
#79 = COORDINATED_UNIVERSAL_TIME_OFFSET ( 1, 0, .AHEAD. ) ;
#80 = EDGE_LOOP ( 'NONE', ( #17 ) ) ;
#81 = PRODUCT ( '969074', '969074', '', ( #82 ) ) ;
#82 = MECHANICAL_CONTEXT ( 'NONE', #196, 'mechanical' ) ;
#83 = CC_DESIGN_PERSON_AND_ORGANIZATION_ASSIGNMENT ( #211, #64, ( #45 ) ) ;
#84 = AXIS2_PLACEMENT_3D ( 'NONE', #182, #145, #223 ) ;
#85 = SECURITY_CLASSIFICATION ( '', '', #97 ) ;
#86 = DATE_AND_TIME ( #56, #228 ) ;
#87 = ADVANCED_BREP_SHAPE_REPRESENTATION ( '969074', ( #58, #128, #214 ), #103 ) ;
#88 = APPROVAL_DATE_TIME ( #12, #18 ) ;
#89 = EDGE_LOOP ( 'NONE', ( #240 ) ) ;
#90 = EDGE_CURVE ( 'NONE', #60, #60, #93, .T. ) ;
#91 = EDGE_LOOP ( 'NONE', ( #148 ) ) ;
#92 = FACE_OUTER_BOUND ( 'NONE', #144, .T. ) ;
#93 = CIRCLE ( 'NONE', #217, 1.488500000000000822 ) ;
#94 = DIRECTION ( 'NONE',  ( -4.275831445896958607E-31, -1.000000000000000000, -1.224646799147353207E-16 ) ) ;
#95 = PLANE ( 'NONE',  #50 ) ;
#96 = AXIS2_PLACEMENT_3D ( 'NONE', #188, #110, #27 ) ;
#97 = SECURITY_CLASSIFICATION_LEVEL ( 'unclassified' ) ;
#98 = PLANE ( 'NONE',  #142 ) ;
#99 = DATE_AND_TIME ( #51, #176 ) ;
#100 = PERSON_AND_ORGANIZATION ( #70, #122 ) ;
#101 = LOCAL_TIME ( 14, 8, 13.00000000000000000, #236 ) ;
#102 = ORIENTED_EDGE ( 'NONE', *, *, #146, .T. ) ;
#103 =( GEOMETRIC_REPRESENTATION_CONTEXT ( 3 ) GLOBAL_UNCERTAINTY_ASSIGNED_CONTEXT ( ( #75 ) ) GLOBAL_UNIT_ASSIGNED_CONTEXT ( ( #26, #165, #171 ) ) REPRESENTATION_CONTEXT ( 'NONE', 'WORKASPACE' ) );
#104 = ORIENTED_EDGE ( 'NONE', *, *, #90, .F. ) ;
#105 = DIRECTION ( 'NONE',  ( -3.491481338843133355E-15, 1.224646799147353207E-16, -1.000000000000000000 ) ) ;
#106 = DIRECTION ( 'NONE',  ( 0.0000000000000000000, 1.000000000000000000, 0.0000000000000000000 ) ) ;
#107 = VERTEX_POINT ( 'NONE', #183 ) ;
#108 = AXIS2_PLACEMENT_3D ( 'NONE', #140, #222, #124 ) ;
#109 = DIRECTION ( 'NONE',  ( -3.491481338843133355E-15, 1.224646799147353207E-16, -1.000000000000000000 ) ) ;
#110 = DIRECTION ( 'NONE',  ( -3.491481338843133355E-15, 1.224646799147353207E-16, -1.000000000000000000 ) ) ;
#111 = FACE_OUTER_BOUND ( 'NONE', #232, .T. ) ;
#112 = PERSON_AND_ORGANIZATION ( #70, #122 ) ;
#113 = APPROVAL_PERSON_ORGANIZATION ( #119, #141, #213 ) ;
#114 = CC_DESIGN_DATE_AND_TIME_ASSIGNMENT ( #237, #194, ( #85 ) ) ;
#115 = EDGE_LOOP ( 'NONE', ( #155 ) ) ;
#116 = APPROVAL_ROLE ( '' ) ;
#117 = CIRCLE ( 'NONE', #84, 1.238500000000000378 ) ;
#118 = EDGE_LOOP ( 'NONE', ( #102 ) ) ;
#119 = PERSON_AND_ORGANIZATION ( #70, #122 ) ;
#120 = EDGE_CURVE ( 'NONE', #162, #162, #136, .T. ) ;
#121 = AXIS2_PLACEMENT_3D ( 'NONE', #242, #159, #76 ) ;
#122 = ORGANIZATION ( 'UNSPECIFIED', 'UNSPECIFIED', '' ) ;
#123 = FACE_OUTER_BOUND ( 'NONE', #89, .T. ) ;
#124 = DIRECTION ( 'NONE',  ( -3.881618967525506505E-31, -1.000000000000000000, -1.092578608483882532E-16 ) ) ;
#125 = CARTESIAN_POINT ( 'NONE',  ( 6.982962677686265448E-14, 1.488499999999998602, 19.99999999999999645 ) ) ;
#126 = FACE_BOUND ( 'NONE', #80, .T. ) ;
#127 = FACE_OUTER_BOUND ( 'NONE', #53, .T. ) ;
#128 = MANIFOLD_SOLID_BREP ( 'Corps-Déplacer/Copier1[2]', #189 ) ;
#129 = CARTESIAN_POINT ( 'NONE',  ( 6.982962677686265448E-14, 4.360466726346142817E-31, 19.99999999999999645 ) ) ;
#130 = CONICAL_SURFACE ( 'NONE', #143, 1.000000000000005551, 0.7853981633974473908 ) ;
#131 = CYLINDRICAL_SURFACE ( 'NONE', #185, 1.250000000000000666 ) ;
#132 = CARTESIAN_POINT ( 'NONE',  ( 0.0000000000000000000, 0.0000000000000000000, 0.0000000000000000000 ) ) ;
#133 = CARTESIAN_POINT ( 'NONE',  ( 1.946500846405046877E-13, 1.249999999999998446, 55.75000000000000000 ) ) ;
#134 = DIRECTION ( 'NONE',  ( -3.491481338843133355E-15, 1.224646799147353207E-16, -1.000000000000000000 ) ) ;
#135 = EDGE_CURVE ( 'NONE', #203, #203, #117, .T. ) ;
#136 = CIRCLE ( 'NONE', #121, 1.000000000000005551 ) ;
#137 = ORIENTED_EDGE ( 'NONE', *, *, #120, .F. ) ;
#138 = DIRECTION ( 'NONE',  ( 0.0000000000000000000, 1.000000000000000000, 0.0000000000000000000 ) ) ;
#139 = ORIENTED_EDGE ( 'NONE', *, *, #37, .F. ) ;
#140 = CARTESIAN_POINT ( 'NONE',  ( 8.728703347107827472E-16, -3.061616997868381169E-17, 0.2499999999999998335 ) ) ;
#141 = APPROVAL ( #32, 'UNSPECIFIED' ) ;
#142 = AXIS2_PLACEMENT_3D ( 'NONE', #170, #9, #198 ) ;
#143 = AXIS2_PLACEMENT_3D ( 'NONE', #40, #20, #22 ) ;
#144 = EDGE_LOOP ( 'NONE', ( #57 ) ) ;
#145 = DIRECTION ( 'NONE',  ( -3.491481338843133355E-15, 1.224646799147353207E-16, -1.000000000000000000 ) ) ;
#146 = EDGE_CURVE ( 'NONE', #77, #77, #38, .T. ) ;
#147 = DIRECTION ( 'NONE',  ( -3.491481338843133355E-15, 1.224646799147353207E-16, -1.000000000000000000 ) ) ;
#148 = ORIENTED_EDGE ( 'NONE', *, *, #193, .T. ) ;
#149 = DIRECTION ( 'NONE',  ( 0.0000000000000000000, 1.000000000000000000, 0.0000000000000000000 ) ) ;
#150 = CALENDAR_DATE ( 2021, 30, 11 ) ;
#151 = AXIS2_PLACEMENT_3D ( 'NONE', #243, #230, #94 ) ;
#152 = APPLICATION_PROTOCOL_DEFINITION ( 'international standard', 'config_control_design', 1994, #180 ) ;
#153 = DIRECTION ( 'NONE',  ( 1.000000000000000000, 0.0000000000000000000, 0.0000000000000000000 ) ) ;
#154 = ORIENTED_EDGE ( 'NONE', *, *, #169, .F. ) ;
#155 = ORIENTED_EDGE ( 'NONE', *, *, #90, .T. ) ;
#156 = EDGE_LOOP ( 'NONE', ( #154 ) ) ;
#157 = PRODUCT_RELATED_PRODUCT_CATEGORY ( 'detail', '', ( #81 ) ) ;
#158 = PLANE ( 'NONE',  #151 ) ;
#159 = DIRECTION ( 'NONE',  ( -3.491481338843133355E-15, 1.224646799147353207E-16, -1.000000000000000000 ) ) ;
#160 = VERTEX_POINT ( 'NONE', #73 ) ;
#161 = DIRECTION ( 'NONE',  ( -3.491481338843133355E-15, 1.224646799147353207E-16, -1.000000000000000000 ) ) ;
#162 = VERTEX_POINT ( 'NONE', #1 ) ;
#163 = AXIS2_PLACEMENT_3D ( 'NONE', #25, #161, #19 ) ;
#164 = ADVANCED_FACE ( 'NONE', ( #74, #127 ), #220, .T. ) ;
#165 =( NAMED_UNIT ( * ) PLANE_ANGLE_UNIT ( ) SI_UNIT ( $, .RADIAN. ) );
#166 = AXIS2_PLACEMENT_3D ( 'NONE', #59, #105, #138 ) ;
#167 = CARTESIAN_POINT ( 'NONE',  ( 3.785471652766322713E-31, 1.238500000000000378, 1.084202172485504434E-16 ) ) ;
#168 = APPROVAL_ROLE ( '' ) ;
#169 = EDGE_CURVE ( 'NONE', #4, #4, #54, .T. ) ;
#170 = CARTESIAN_POINT ( 'NONE',  ( 1.955229549752154679E-13, 7.498798913309223722E-33, 56.00000000000000000 ) ) ;
#171 =( NAMED_UNIT ( * ) SI_UNIT ( $, .STERADIAN. ) SOLID_ANGLE_UNIT ( ) );
#172 = APPROVAL_DATE_TIME ( #99, #141 ) ;
#173 = CALENDAR_DATE ( 2021, 30, 11 ) ;
#174 = PERSON_AND_ORGANIZATION_ROLE ( 'design_owner' ) ;
#175 = ADVANCED_FACE ( 'NONE', ( #92, #36 ), #235, .T. ) ;
#176 = LOCAL_TIME ( 14, 8, 13.00000000000000000, #79 ) ;
#177 = EDGE_LOOP ( 'NONE', ( #14 ) ) ;
#178 = CLOSED_SHELL ( 'NONE', ( #229, #175, #21, #227, #39 ) ) ;
#179 = DIRECTION ( 'NONE',  ( -4.275831445896958607E-31, -1.000000000000000000, -1.224646799147353207E-16 ) ) ;
#180 = APPLICATION_CONTEXT ( 'configuration controlled 3d designs of mechanical parts and assemblies' ) ;
#181 = EDGE_LOOP ( 'NONE', ( #137 ) ) ;
#182 = CARTESIAN_POINT ( 'NONE',  ( -1.510145592977062192E-31, 5.296877706637318470E-33, -4.325228882584930373E-17 ) ) ;
#183 = CARTESIAN_POINT ( 'NONE',  ( 6.982962677686265448E-14, 1.488499999999998602, 19.99999999999999645 ) ) ;
#184 = DIRECTION ( 'NONE',  ( 3.491481338843133355E-15, -1.224646799147353207E-16, 1.000000000000000000 ) ) ;
#185 = AXIS2_PLACEMENT_3D ( 'NONE', #132, #109, #210 ) ;
#186 = APPROVAL_PERSON_ORGANIZATION ( #29, #18, #116 ) ;
#187 = CYLINDRICAL_SURFACE ( 'NONE', #62, 1.488499999999999268 ) ;
#188 = CARTESIAN_POINT ( 'NONE',  ( 6.982962677686265448E-14, -2.449293598294706119E-15, 19.99999999999999645 ) ) ;
#189 = CLOSED_SHELL ( 'NONE', ( #63, #164, #28, #44 ) ) ;
#190 = DIRECTION ( 'NONE',  ( -3.491481338843133355E-15, 1.224646799147353207E-16, -1.000000000000000000 ) ) ;
#191 = PRODUCT_DEFINITION ( 'UNKNOWN', '', #45, #226 ) ;
#192 = PERSON_AND_ORGANIZATION ( #70, #122 ) ;
#193 = EDGE_CURVE ( 'NONE', #107, #107, #200, .T. ) ;
#194 = DATE_TIME_ROLE ( 'classification_date' ) ;
#195 = AXIS2_PLACEMENT_3D ( 'NONE', #129, #206, #179 ) ;
#196 = APPLICATION_CONTEXT ( 'configuration controlled 3d designs of mechanical parts and assemblies' ) ;
#197 = LOCAL_TIME ( 14, 8, 13.00000000000000000, #35 ) ;
#198 = DIRECTION ( 'NONE',  ( 4.275831445896958607E-31, 1.000000000000000000, 1.224646799147353207E-16 ) ) ;
#199 = CC_DESIGN_PERSON_AND_ORGANIZATION_ASSIGNMENT ( #100, #13, ( #191 ) ) ;
#200 = CIRCLE ( 'NONE', #96, 1.488500000000000822 ) ;
#201 = EDGE_LOOP ( 'NONE', ( #104 ) ) ;
#202 = CC_DESIGN_APPROVAL ( #239, ( #191 ) ) ;
#203 = VERTEX_POINT ( 'NONE', #167 ) ;
#204 = FACE_OUTER_BOUND ( 'NONE', #201, .T. ) ;
#205 = FACE_OUTER_BOUND ( 'NONE', #52, .T. ) ;
#206 = DIRECTION ( 'NONE',  ( 3.491481338843133355E-15, -1.224646799147353207E-16, 1.000000000000000000 ) ) ;
#207 = COORDINATED_UNIVERSAL_TIME_OFFSET ( 1, 0, .AHEAD. ) ;
#208 = CARTESIAN_POINT ( 'NONE',  ( 6.982962677686265448E-14, -2.449293598294706119E-15, 19.99999999999999645 ) ) ;
#209 = CC_DESIGN_PERSON_AND_ORGANIZATION_ASSIGNMENT ( #15, #61, ( #85 ) ) ;
#210 = DIRECTION ( 'NONE',  ( 4.275831445896957731E-31, 1.000000000000000000, 1.224646799147353454E-16 ) ) ;
#211 = PERSON_AND_ORGANIZATION ( #70, #122 ) ;
#212 = CIRCLE ( 'NONE', #224, 1.488499999999997714 ) ;
#213 = APPROVAL_ROLE ( '' ) ;
#214 = AXIS2_PLACEMENT_3D ( 'NONE', #69, #219, #153 ) ;
#215 = CC_DESIGN_PERSON_AND_ORGANIZATION_ASSIGNMENT ( #241, #231, ( #45 ) ) ;
#216 = CALENDAR_DATE ( 2021, 30, 11 ) ;
#217 = AXIS2_PLACEMENT_3D ( 'NONE', #208, #24, #106 ) ;
#218 = CC_DESIGN_SECURITY_CLASSIFICATION ( #85, ( #45 ) ) ;
#219 = DIRECTION ( 'NONE',  ( 0.0000000000000000000, 0.0000000000000000000, 1.000000000000000000 ) ) ;
#220 = CONICAL_SURFACE ( 'NONE', #108, 1.488499999999997714, 0.7853981633974428389 ) ;
#221 = ORIENTED_EDGE ( 'NONE', *, *, #37, .T. ) ;
#222 = DIRECTION ( 'NONE',  ( 3.491481338843133355E-15, -1.224646799147353207E-16, 1.000000000000000000 ) ) ;
#223 = DIRECTION ( 'NONE',  ( 4.275831445896958607E-31, 1.000000000000000000, 1.224646799147353454E-16 ) ) ;
#224 = AXIS2_PLACEMENT_3D ( 'NONE', #65, #134, #30 ) ;
#225 = LOCAL_TIME ( 14, 8, 13.00000000000000000, #207 ) ;
#226 = DESIGN_CONTEXT ( 'detailed design', #180, 'design' ) ;
#227 = ADVANCED_FACE ( 'NONE', ( #41, #126 ), #130, .T. ) ;
#228 = LOCAL_TIME ( 14, 8, 13.00000000000000000, #10 ) ;
#229 = ADVANCED_FACE ( 'NONE', ( #2 ), #158, .F. ) ;
#230 = DIRECTION ( 'NONE',  ( 3.491481338843133355E-15, -1.224646799147353207E-16, 1.000000000000000000 ) ) ;
#231 = PERSON_AND_ORGANIZATION_ROLE ( 'creator' ) ;
#232 = EDGE_LOOP ( 'NONE', ( #139 ) ) ;
#233 = CC_DESIGN_DATE_AND_TIME_ASSIGNMENT ( #86, #238, ( #191 ) ) ;
#234 = FACE_OUTER_BOUND ( 'NONE', #181, .T. ) ;
#235 = CONICAL_SURFACE ( 'NONE', #3, 1.249999999999996003, 0.5235987755982922653 ) ;
#236 = COORDINATED_UNIVERSAL_TIME_OFFSET ( 1, 0, .AHEAD. ) ;
#237 = DATE_AND_TIME ( #216, #225 ) ;
#238 = DATE_TIME_ROLE ( 'creation_date' ) ;
#239 = APPROVAL ( #7, 'UNSPECIFIED' ) ;
#240 = ORIENTED_EDGE ( 'NONE', *, *, #146, .F. ) ;
#241 = PERSON_AND_ORGANIZATION ( #70, #122 ) ;
#242 = CARTESIAN_POINT ( 'NONE',  ( 1.955229549752154679E-13, -6.858022075225178552E-15, 56.00000000000000000 ) ) ;
#243 = CARTESIAN_POINT ( 'NONE',  ( 6.982962677686265448E-14, 4.360466726346142817E-31, 19.99999999999999645 ) ) ;
ENDSEC;
END-ISO-10303-21;
