ISO-10303-21;
HEADER;
FILE_DESCRIPTION (( 'STEP AP203' ),
    '1' );
FILE_NAME ('968834.step',
    '2021-12-01T07:27:30',
    ( '' ),
    ( '' ),
    'SwSTEP 2.0',
    'SolidWorks 2019',
    '' );
FILE_SCHEMA (( 'CONFIG_CONTROL_DESIGN' ));
ENDSEC;

DATA;
#1 = FACE_OUTER_BOUND ( 'NONE', #215, .T. ) ;
#2 = DIRECTION ( 'NONE',  ( -3.491481338843133355E-15, 1.224646799147353207E-16, -1.000000000000000000 ) ) ;
#3 = AXIS2_PLACEMENT_3D ( 'NONE', #236, #88, #198 ) ;
#4 = CC_DESIGN_PERSON_AND_ORGANIZATION_ASSIGNMENT ( #169, #258, ( #268 ) ) ;
#5 = UNCERTAINTY_MEASURE_WITH_UNIT (LENGTH_MEASURE( 1.000000000000000082E-05 ), #254, 'distance_accuracy_value', 'NONE');
#6 = CARTESIAN_POINT ( 'NONE',  ( 4.571725116661085880E-14, -1.603545311387987205E-15, 13.09394114698570988 ) ) ;
#7 = DIRECTION ( 'NONE',  ( -4.275831445896958607E-31, -1.000000000000000000, -1.224646799147353207E-16 ) ) ;
#8 = DIRECTION ( 'NONE',  ( 0.0000000000000000000, 1.000000000000000000, 0.0000000000000000000 ) ) ;
#9 = COORDINATED_UNIVERSAL_TIME_OFFSET ( 1, 0, .AHEAD. ) ;
#10 = EDGE_LOOP ( 'NONE', ( #262 ) ) ;
#11 = AXIS2_PLACEMENT_3D ( 'NONE', #148, #68, #256 ) ;
#12 = APPROVAL ( #59, 'UNSPECIFIED' ) ;
#13 = VERTEX_POINT ( 'NONE', #159 ) ;
#14 = DESIGN_CONTEXT ( 'detailed design', #145, 'design' ) ;
#15 = DIRECTION ( 'NONE',  ( -3.491481338843133355E-15, 1.224646799147353207E-16, -1.000000000000000000 ) ) ;
#16 = ADVANCED_FACE ( 'NONE', ( #168 ), #122, .F. ) ;
#17 = EDGE_LOOP ( 'NONE', ( #146 ) ) ;
#18 = TOROIDAL_SURFACE ( 'NONE', #3, 2.280000000000000249, 2.000000000000000000 ) ;
#19 = ORIENTED_EDGE ( 'NONE', *, *, #154, .F. ) ;
#20 = DIRECTION ( 'NONE',  ( -3.491481338843133355E-15, 1.224646799147353207E-16, -1.000000000000000000 ) ) ;
#21 = DIRECTION ( 'NONE',  ( -3.491481338843133355E-15, 1.224646799147353207E-16, -1.000000000000000000 ) ) ;
#22 = AXIS2_PLACEMENT_3D ( 'NONE', #272, #101, #39 ) ;
#23 = DIRECTION ( 'NONE',  ( -3.491481338843133355E-15, 1.224646799147353207E-16, -1.000000000000000000 ) ) ;
#24 = PERSON_AND_ORGANIZATION ( #29, #167 ) ;
#25 = ADVANCED_FACE ( 'NONE', ( #196 ), #255, .T. ) ;
#26 = CARTESIAN_POINT ( 'NONE',  ( 3.491481338843132369E-16, -1.224646799147352807E-17, 0.09999999999999996392 ) ) ;
#27 = CYLINDRICAL_SURFACE ( 'NONE', #22, 1.500000000000000000 ) ;
#28 = LOCAL_TIME ( 8, 27, 30.00000000000000000, #152 ) ;
#29 = PERSON ( 'UNSPECIFIED', 'UNSPECIFIED', 'UNSPECIFIED', ('UNSPECIFIED'), ('UNSPECIFIED'), ('UNSPECIFIED') ) ;
#30 = APPLICATION_PROTOCOL_DEFINITION ( 'international standard', 'config_control_design', 1994, #184 ) ;
#31 = APPROVAL_STATUS ( 'not_yet_approved' ) ;
#32 = AXIS2_PLACEMENT_3D ( 'NONE', #52, #261, #138 ) ;
#33 = VERTEX_POINT ( 'NONE', #275 ) ;
#34 = EDGE_LOOP ( 'NONE', ( #192 ) ) ;
#35 = COORDINATED_UNIVERSAL_TIME_OFFSET ( 1, 0, .AHEAD. ) ;
#36 = APPROVAL_DATE_TIME ( #225, #229 ) ;
#37 = ORIENTED_EDGE ( 'NONE', *, *, #120, .F. ) ;
#38 = AXIS2_PLACEMENT_3D ( 'NONE', #61, #83, #147 ) ;
#39 = DIRECTION ( 'NONE',  ( 4.275831445896959482E-31, 1.000000000000000000, 1.224646799147353207E-16 ) ) ;
#40 = ADVANCED_FACE ( 'NONE', ( #119, #257 ), #18, .F. ) ;
#41 = DIRECTION ( 'NONE',  ( 0.0000000000000000000, 1.000000000000000000, 0.0000000000000000000 ) ) ;
#42 = CIRCLE ( 'NONE', #135, 0.2799999999999999156 ) ;
#43 = DIRECTION ( 'NONE',  ( 3.491481338843133355E-15, -1.224646799147353207E-16, 1.000000000000000000 ) ) ;
#44 = CIRCLE ( 'NONE', #11, 0.2800000000000001932 ) ;
#45 = FACE_BOUND ( 'NONE', #80, .T. ) ;
#46 = ADVANCED_FACE ( 'NONE', ( #233, #110 ), #151, .T. ) ;
#47 = CARTESIAN_POINT ( 'NONE',  ( 0.0000000000000000000, 0.2222649730810376811, 0.0000000000000000000 ) ) ;
#48 = CARTESIAN_POINT ( 'NONE',  ( 1.396592535537253342E-14, 0.2799999999999994160, 4.000000000000000000 ) ) ;
#49 = AXIS2_PLACEMENT_3D ( 'NONE', #125, #72, #99 ) ;
#50 = CC_DESIGN_PERSON_AND_ORGANIZATION_ASSIGNMENT ( #253, #78, ( #238 ) ) ;
#51 = VERTEX_POINT ( 'NONE', #53 ) ;
#52 = CARTESIAN_POINT ( 'NONE',  ( 1.396592535537253342E-14, 2.099663695726592714E-33, 4.000000000000000000 ) ) ;
#53 = CARTESIAN_POINT ( 'NONE',  ( 4.571725116661085880E-14, 1.499999999999995559, 13.09394114698570988 ) ) ;
#54 = CIRCLE ( 'NONE', #181, 0.3103844939755817101 ) ;
#55 = PERSON_AND_ORGANIZATION ( #29, #167 ) ;
#56 = ORIENTED_EDGE ( 'NONE', *, *, #154, .T. ) ;
#57 = ORIENTED_EDGE ( 'NONE', *, *, #217, .T. ) ;
#58 = ORIENTED_EDGE ( 'NONE', *, *, #87, .T. ) ;
#59 = APPROVAL_STATUS ( 'not_yet_approved' ) ;
#60 = CC_DESIGN_DATE_AND_TIME_ASSIGNMENT ( #102, #171, ( #268 ) ) ;
#61 = CARTESIAN_POINT ( 'NONE',  ( -9.503675612213420194E-32, 3.333440677213607358E-33, -2.721960878462654517E-17 ) ) ;
#62 = PLANE ( 'NONE',  #189 ) ;
#63 = CARTESIAN_POINT ( 'NONE',  ( 0.0000000000000000000, 0.0000000000000000000, 0.0000000000000000000 ) ) ;
#64 = AXIS2_PLACEMENT_3D ( 'NONE', #127, #173, #240 ) ;
#65 = CARTESIAN_POINT ( 'NONE',  ( -4.751837806106710097E-32, 1.666720338606803679E-33, -1.360980439231327258E-17 ) ) ;
#66 = CONICAL_SURFACE ( 'NONE', #89, 1.499999999999996891, 0.1745329251994260367 ) ;
#67 = FACE_OUTER_BOUND ( 'NONE', #195, .T. ) ;
#68 = DIRECTION ( 'NONE',  ( -3.491481338843133355E-15, 1.224646799147353207E-16, -1.000000000000000000 ) ) ;
#69 = DATE_AND_TIME ( #107, #28 ) ;
#70 = PERSON_AND_ORGANIZATION ( #29, #167 ) ;
#71 = VERTEX_POINT ( 'NONE', #252 ) ;
#72 = DIRECTION ( 'NONE',  ( -3.491481338843133355E-15, 1.224646799147353207E-16, -1.000000000000000000 ) ) ;
#73 = CARTESIAN_POINT ( 'NONE',  ( 3.491481338843133355E-16, 0.2799999999999994160, 0.1000000000000000056 ) ) ;
#74 = ORIENTED_EDGE ( 'NONE', *, *, #269, .F. ) ;
#75 = APPLICATION_PROTOCOL_DEFINITION ( 'international standard', 'config_control_design', 1994, #145 ) ;
#76 = ORIENTED_EDGE ( 'NONE', *, *, #217, .F. ) ;
#77 = CIRCLE ( 'NONE', #227, 1.500000000000003331 ) ;
#78 = PERSON_AND_ORGANIZATION_ROLE ( 'design_supplier' ) ;
#79 = ORIENTED_EDGE ( 'NONE', *, *, #100, .F. ) ;
#80 = EDGE_LOOP ( 'NONE', ( #19 ) ) ;
#81 = DIRECTION ( 'NONE',  ( -4.275831445896958607E-31, -1.000000000000000000, -1.224646799147353207E-16 ) ) ;
#82 = LOCAL_TIME ( 8, 27, 30.00000000000000000, #211 ) ;
#83 = DIRECTION ( 'NONE',  ( -3.491481338843133355E-15, 1.224646799147353207E-16, -1.000000000000000000 ) ) ;
#84 = DIRECTION ( 'NONE',  ( 4.275831445896958607E-31, 1.000000000000000000, 1.224646799147353207E-16 ) ) ;
#85 = CONICAL_SURFACE ( 'NONE', #259, 0.2799999999999994160, 0.5235987755982927094 ) ;
#86 = FACE_OUTER_BOUND ( 'NONE', #34, .T. ) ;
#87 = EDGE_CURVE ( 'NONE', #51, #51, #172, .T. ) ;
#88 = DIRECTION ( 'NONE',  ( -3.491481338843133355E-15, 1.224646799147353207E-16, -1.000000000000000000 ) ) ;
#89 = AXIS2_PLACEMENT_3D ( 'NONE', #265, #248, #203 ) ;
#90 = VERTEX_POINT ( 'NONE', #185 ) ;
#91 = COORDINATED_UNIVERSAL_TIME_OFFSET ( 1, 0, .AHEAD. ) ;
#92 = CALENDAR_DATE ( 2021, 1, 12 ) ;
#93 = AXIS2_PLACEMENT_3D ( 'NONE', #191, #166, #250 ) ;
#94 = PERSON_AND_ORGANIZATION_ROLE ( 'design_owner' ) ;
#95 = EDGE_LOOP ( 'NONE', ( #37 ) ) ;
#96 = CARTESIAN_POINT ( 'NONE',  ( 0.0000000000000000000, 0.0000000000000000000, 0.0000000000000000000 ) ) ;
#97 = EDGE_LOOP ( 'NONE', ( #231 ) ) ;
#98 =( GEOMETRIC_REPRESENTATION_CONTEXT ( 3 ) GLOBAL_UNCERTAINTY_ASSIGNED_CONTEXT ( ( #5 ) ) GLOBAL_UNIT_ASSIGNED_CONTEXT ( ( #254, #207, #208 ) ) REPRESENTATION_CONTEXT ( 'NONE', 'WORKASPACE' ) );
#99 = DIRECTION ( 'NONE',  ( 4.275831445896958607E-31, 1.000000000000000000, 1.224646799147353207E-16 ) ) ;
#100 = EDGE_CURVE ( 'NONE', #13, #13, #77, .T. ) ;
#101 = DIRECTION ( 'NONE',  ( -3.491481338843133355E-15, 1.224646799147353207E-16, -1.000000000000000000 ) ) ;
#102 = DATE_AND_TIME ( #187, #130 ) ;
#103 = DIRECTION ( 'NONE',  ( 0.0000000000000000000, 1.000000000000000000, 0.0000000000000000000 ) ) ;
#104 = CIRCLE ( 'NONE', #93, 1.200000000000003286 ) ;
#105 = ADVANCED_FACE ( 'NONE', ( #111, #106 ), #199, .T. ) ;
#106 = FACE_OUTER_BOUND ( 'NONE', #10, .T. ) ;
#107 = CALENDAR_DATE ( 2021, 1, 12 ) ;
#108 = LOCAL_TIME ( 8, 27, 30.00000000000000000, #35 ) ;
#109 = ADVANCED_FACE ( 'NONE', ( #221, #175 ), #85, .T. ) ;
#110 = FACE_BOUND ( 'NONE', #193, .T. ) ;
#111 = FACE_OUTER_BOUND ( 'NONE', #164, .T. ) ;
#112 = APPROVAL_PERSON_ORGANIZATION ( #55, #229, #141 ) ;
#113 = ADVANCED_FACE ( 'NONE', ( #241 ), #62, .F. ) ;
#114 = PRODUCT_DEFINITION_SHAPE ( 'NONE', 'NONE',  #249 ) ;
#115 = MECHANICAL_CONTEXT ( 'NONE', #184, 'mechanical' ) ;
#116 = APPROVAL_ROLE ( '' ) ;
#117 = PERSON_AND_ORGANIZATION_ROLE ( 'creator' ) ;
#118 = CC_DESIGN_APPROVAL ( #12, ( #268 ) ) ;
#119 = FACE_OUTER_BOUND ( 'NONE', #97, .T. ) ;
#120 = EDGE_CURVE ( 'NONE', #228, #228, #222, .T. ) ;
#121 = CARTESIAN_POINT ( 'NONE',  ( 1.396592535537253342E-14, -4.898587196589412829E-16, 4.000000000000000000 ) ) ;
#122 = PLANE ( 'NONE',  #49 ) ;
#123 = DATE_AND_TIME ( #276, #82 ) ;
#124 = EDGE_LOOP ( 'NONE', ( #56 ) ) ;
#125 = CARTESIAN_POINT ( 'NONE',  ( 1.326762908760390423E-13, 8.998558695971103225E-33, 38.00000000000000000 ) ) ;
#126 = CYLINDRICAL_SURFACE ( 'NONE', #140, 0.2799999999999996381 ) ;
#127 = CARTESIAN_POINT ( 'NONE',  ( 3.491481338843132369E-16, -1.224646799147352807E-17, 0.09999999999999996392 ) ) ;
#128 = DIRECTION ( 'NONE',  ( -3.491481338843133355E-15, 1.224646799147353207E-16, -1.000000000000000000 ) ) ;
#129 = MANIFOLD_SOLID_BREP ( 'Corps-Déplacer/Copier1[1]', #232 ) ;
#130 = LOCAL_TIME ( 8, 27, 30.00000000000000000, #91 ) ;
#131 = APPROVAL_PERSON_ORGANIZATION ( #70, #200, #116 ) ;
#132 = CALENDAR_DATE ( 2021, 1, 12 ) ;
#133 = FACE_OUTER_BOUND ( 'NONE', #95, .T. ) ;
#134 = VERTEX_POINT ( 'NONE', #48 ) ;
#135 = AXIS2_PLACEMENT_3D ( 'NONE', #247, #158, #103 ) ;
#136 = SECURITY_CLASSIFICATION_LEVEL ( 'unclassified' ) ;
#137 = APPROVAL_DATE_TIME ( #160, #200 ) ;
#138 = DIRECTION ( 'NONE',  ( -4.275831445896958607E-31, -1.000000000000000000, -1.224646799147353207E-16 ) ) ;
#139 = CARTESIAN_POINT ( 'NONE',  ( 1.396592535537253342E-14, 0.2799999999999994160, 4.000000000000000000 ) ) ;
#140 = AXIS2_PLACEMENT_3D ( 'NONE', #216, #20, #197 ) ;
#141 = APPROVAL_ROLE ( '' ) ;
#142 = ORIENTED_EDGE ( 'NONE', *, *, #161, .T. ) ;
#143 = CC_DESIGN_PERSON_AND_ORGANIZATION_ASSIGNMENT ( #230, #117, ( #249 ) ) ;
#144 = EDGE_LOOP ( 'NONE', ( #239 ) ) ;
#145 = APPLICATION_CONTEXT ( 'configuration controlled 3d designs of mechanical parts and assemblies' ) ;
#146 = ORIENTED_EDGE ( 'NONE', *, *, #100, .T. ) ;
#147 = DIRECTION ( 'NONE',  ( 4.275831445896958607E-31, 1.000000000000000000, 1.224646799147353454E-16 ) ) ;
#148 = CARTESIAN_POINT ( 'NONE',  ( 2.094888803305880013E-14, -7.347880794884119736E-16, 6.000000000000000000 ) ) ;
#149 = ADVANCED_FACE ( 'NONE', ( #86, #218 ), #27, .T. ) ;
#150 = FACE_OUTER_BOUND ( 'NONE', #162, .T. ) ;
#151 = CONICAL_SURFACE ( 'NONE', #280, 1.200000000000003286, 0.7853981633974453924 ) ;
#152 = COORDINATED_UNIVERSAL_TIME_OFFSET ( 1, 0, .AHEAD. ) ;
#153 = PRODUCT ( '968834', '968834', '', ( #115 ) ) ;
#154 = EDGE_CURVE ( 'NONE', #33, #33, #54, .T. ) ;
#155 = CC_DESIGN_APPROVAL ( #200, ( #249 ) ) ;
#156 = DIRECTION ( 'NONE',  ( 3.491481338843133355E-15, -1.224646799147353207E-16, 1.000000000000000000 ) ) ;
#157 = ADVANCED_FACE ( 'NONE', ( #150 ), #270, .F. ) ;
#158 = DIRECTION ( 'NONE',  ( -3.491481338843133355E-15, 1.224646799147353207E-16, -1.000000000000000000 ) ) ;
#159 = CARTESIAN_POINT ( 'NONE',  ( 1.316288464743861212E-13, 1.499999999999998668, 37.69999999999999574 ) ) ;
#160 = DATE_AND_TIME ( #92, #205 ) ;
#161 = EDGE_CURVE ( 'NONE', #134, #134, #42, .T. ) ;
#162 = EDGE_LOOP ( 'NONE', ( #57 ) ) ;
#163 = VERTEX_POINT ( 'NONE', #47 ) ;
#164 = EDGE_LOOP ( 'NONE', ( #74 ) ) ;
#165 = PERSON_AND_ORGANIZATION_ROLE ( 'creator' ) ;
#166 = DIRECTION ( 'NONE',  ( -3.491481338843133355E-15, 1.224646799147353207E-16, -1.000000000000000000 ) ) ;
#167 = ORGANIZATION ( 'UNSPECIFIED', 'UNSPECIFIED', '' ) ;
#168 = FACE_OUTER_BOUND ( 'NONE', #144, .T. ) ;
#169 = PERSON_AND_ORGANIZATION ( #29, #167 ) ;
#170 = ORIENTED_EDGE ( 'NONE', *, *, #245, .T. ) ;
#171 = DATE_TIME_ROLE ( 'classification_date' ) ;
#172 = CIRCLE ( 'NONE', #219, 1.499999999999996891 ) ;
#173 = DIRECTION ( 'NONE',  ( -3.491481338843133355E-15, 1.224646799147353207E-16, -1.000000000000000000 ) ) ;
#174 = PRODUCT_RELATED_PRODUCT_CATEGORY ( 'detail', '', ( #153 ) ) ;
#175 = FACE_OUTER_BOUND ( 'NONE', #214, .T. ) ;
#176 = APPROVAL_ROLE ( '' ) ;
#177 = DIRECTION ( 'NONE',  ( -3.491481338843133355E-15, 1.224646799147353207E-16, -1.000000000000000000 ) ) ;
#178 = CIRCLE ( 'NONE', #38, 0.2222649730810376811 ) ;
#179 = CC_DESIGN_PERSON_AND_ORGANIZATION_ASSIGNMENT ( #244, #165, ( #238 ) ) ;
#180 = CARTESIAN_POINT ( 'NONE',  ( 2.216146677675516400E-14, -7.773196164799257849E-16, 6.347296355333847728 ) ) ;
#181 = AXIS2_PLACEMENT_3D ( 'NONE', #180, #177, #41 ) ;
#182 = DIRECTION ( 'NONE',  ( 3.491481338843133355E-15, -1.224646799147353207E-16, 1.000000000000000000 ) ) ;
#183 = ADVANCED_FACE ( 'NONE', ( #45, #1 ), #66, .T. ) ;
#184 = APPLICATION_CONTEXT ( 'configuration controlled 3d designs of mechanical parts and assemblies' ) ;
#185 = CARTESIAN_POINT ( 'NONE',  ( 2.094888803305880013E-14, 0.2799999999999994160, 6.000000000000000000 ) ) ;
#186 = SHAPE_DEFINITION_REPRESENTATION ( #114, #213 ) ;
#187 = CALENDAR_DATE ( 2021, 1, 12 ) ;
#188 = DIRECTION ( 'NONE',  ( 0.0000000000000000000, 0.0000000000000000000, 1.000000000000000000 ) ) ;
#189 = AXIS2_PLACEMENT_3D ( 'NONE', #202, #43, #81 ) ;
#190 = ORIENTED_EDGE ( 'NONE', *, *, #120, .T. ) ;
#191 = CARTESIAN_POINT ( 'NONE',  ( 1.326762908760390423E-13, -4.653657836759941941E-15, 38.00000000000000000 ) ) ;
#192 = ORIENTED_EDGE ( 'NONE', *, *, #87, .F. ) ;
#193 = EDGE_LOOP ( 'NONE', ( #170 ) ) ;
#194 = AXIS2_PLACEMENT_3D ( 'NONE', #96, #188, #206 ) ;
#195 = EDGE_LOOP ( 'NONE', ( #142 ) ) ;
#196 = FACE_OUTER_BOUND ( 'NONE', #237, .T. ) ;
#197 = DIRECTION ( 'NONE',  ( 4.275831445896958607E-31, 1.000000000000000000, 1.224646799147353207E-16 ) ) ;
#198 = DIRECTION ( 'NONE',  ( 4.399921606659853766E-31, 1.000000000000000000, 1.224646799147353207E-16 ) ) ;
#199 = CYLINDRICAL_SURFACE ( 'NONE', #201, 0.2800000000000000822 ) ;
#200 = APPROVAL ( #31, 'UNSPECIFIED' ) ;
#201 = AXIS2_PLACEMENT_3D ( 'NONE', #63, #2, #84 ) ;
#202 = CARTESIAN_POINT ( 'NONE',  ( 1.396592535537253342E-14, 2.099663695726592714E-33, 4.000000000000000000 ) ) ;
#203 = DIRECTION ( 'NONE',  ( 0.0000000000000000000, -1.000000000000000000, 0.0000000000000000000 ) ) ;
#204 = ADVANCED_FACE ( 'NONE', ( #133, #67 ), #126, .T. ) ;
#205 = LOCAL_TIME ( 8, 27, 30.00000000000000000, #9 ) ;
#206 = DIRECTION ( 'NONE',  ( 1.000000000000000000, 0.0000000000000000000, 0.0000000000000000000 ) ) ;
#207 =( NAMED_UNIT ( * ) PLANE_ANGLE_UNIT ( ) SI_UNIT ( $, .RADIAN. ) );
#208 =( NAMED_UNIT ( * ) SI_UNIT ( $, .STERADIAN. ) SOLID_ANGLE_UNIT ( ) );
#209 = EDGE_LOOP ( 'NONE', ( #76 ) ) ;
#210 = APPROVAL_PERSON_ORGANIZATION ( #24, #12, #176 ) ;
#211 = COORDINATED_UNIVERSAL_TIME_OFFSET ( 1, 0, .AHEAD. ) ;
#212 = ORIENTED_EDGE ( 'NONE', *, *, #269, .T. ) ;
#213 = ADVANCED_BREP_SHAPE_REPRESENTATION ( '968834', ( #129, #226, #194 ), #98 ) ;
#214 = EDGE_LOOP ( 'NONE', ( #190 ) ) ;
#215 = EDGE_LOOP ( 'NONE', ( #58 ) ) ;
#216 = CARTESIAN_POINT ( 'NONE',  ( 0.0000000000000000000, 0.0000000000000000000, 0.0000000000000000000 ) ) ;
#217 = EDGE_CURVE ( 'NONE', #163, #163, #178, .T. ) ;
#218 = FACE_OUTER_BOUND ( 'NONE', #17, .T. ) ;
#219 = AXIS2_PLACEMENT_3D ( 'NONE', #6, #21, #282 ) ;
#220 = CARTESIAN_POINT ( 'NONE',  ( 1.326762908760390423E-13, -4.653657836759941941E-15, 38.00000000000000000 ) ) ;
#221 = FACE_BOUND ( 'NONE', #209, .T. ) ;
#222 = CIRCLE ( 'NONE', #64, 0.2799999999999994160 ) ;
#223 = CC_DESIGN_PERSON_AND_ORGANIZATION_ASSIGNMENT ( #273, #94, ( #153 ) ) ;
#224 = DIRECTION ( 'NONE',  ( 0.0000000000000000000, 1.000000000000000000, 0.0000000000000000000 ) ) ;
#225 = DATE_AND_TIME ( #132, #108 ) ;
#226 = MANIFOLD_SOLID_BREP ( 'Corps-Déplacer/Copier1[2]', #246 ) ;
#227 = AXIS2_PLACEMENT_3D ( 'NONE', #267, #128, #224 ) ;
#228 = VERTEX_POINT ( 'NONE', #73 ) ;
#229 = APPROVAL ( #260, 'UNSPECIFIED' ) ;
#230 = PERSON_AND_ORGANIZATION ( #29, #167 ) ;
#231 = ORIENTED_EDGE ( 'NONE', *, *, #234, .F. ) ;
#232 = CLOSED_SHELL ( 'NONE', ( #113, #105, #40, #183, #149, #46, #16 ) ) ;
#233 = FACE_OUTER_BOUND ( 'NONE', #263, .T. ) ;
#234 = EDGE_CURVE ( 'NONE', #90, #90, #44, .T. ) ;
#235 = DATE_TIME_ROLE ( 'creation_date' ) ;
#236 = CARTESIAN_POINT ( 'NONE',  ( 2.094888803305880013E-14, -8.673617379884035472E-16, 6.000000000000000000 ) ) ;
#237 = EDGE_LOOP ( 'NONE', ( #277 ) ) ;
#238 = PRODUCT_DEFINITION_FORMATION_WITH_SPECIFIED_SOURCE ( 'ANY', '', #153, .NOT_KNOWN. ) ;
#239 = ORIENTED_EDGE ( 'NONE', *, *, #245, .F. ) ;
#240 = DIRECTION ( 'NONE',  ( 3.439160614977214012E-31, 1.000000000000000000, 1.452056481007375144E-16 ) ) ;
#241 = FACE_OUTER_BOUND ( 'NONE', #279, .T. ) ;
#242 = AXIS2_PLACEMENT_3D ( 'NONE', #65, #156, #7 ) ;
#243 = DIRECTION ( 'NONE',  ( -3.439160614977214012E-31, -1.000000000000000000, -1.452056481007375144E-16 ) ) ;
#244 = PERSON_AND_ORGANIZATION ( #29, #167 ) ;
#245 = EDGE_CURVE ( 'NONE', #71, #71, #104, .T. ) ;
#246 = CLOSED_SHELL ( 'NONE', ( #157, #109, #204, #25 ) ) ;
#247 = CARTESIAN_POINT ( 'NONE',  ( 1.396592535537253342E-14, -4.898587196589412829E-16, 4.000000000000000000 ) ) ;
#248 = DIRECTION ( 'NONE',  ( 3.491481338843133355E-15, -1.224646799147353207E-16, 1.000000000000000000 ) ) ;
#249 = PRODUCT_DEFINITION ( 'UNKNOWN', '', #238, #14 ) ;
#250 = DIRECTION ( 'NONE',  ( 0.0000000000000000000, 1.000000000000000000, 0.0000000000000000000 ) ) ;
#251 = APPROVAL_DATE_TIME ( #69, #12 ) ;
#252 = CARTESIAN_POINT ( 'NONE',  ( 1.326762908760390423E-13, 1.199999999999998845, 38.00000000000000000 ) ) ;
#253 = PERSON_AND_ORGANIZATION ( #29, #167 ) ;
#254 =( LENGTH_UNIT ( ) NAMED_UNIT ( * ) SI_UNIT ( .MILLI., .METRE. ) );
#255 = PLANE ( 'NONE',  #32 ) ;
#256 = DIRECTION ( 'NONE',  ( 0.0000000000000000000, 1.000000000000000000, 0.0000000000000000000 ) ) ;
#257 = FACE_OUTER_BOUND ( 'NONE', #124, .T. ) ;
#258 = PERSON_AND_ORGANIZATION_ROLE ( 'classification_officer' ) ;
#259 = AXIS2_PLACEMENT_3D ( 'NONE', #26, #182, #243 ) ;
#260 = APPROVAL_STATUS ( 'not_yet_approved' ) ;
#261 = DIRECTION ( 'NONE',  ( 3.491481338843133355E-15, -1.224646799147353207E-16, 1.000000000000000000 ) ) ;
#262 = ORIENTED_EDGE ( 'NONE', *, *, #234, .T. ) ;
#263 = EDGE_LOOP ( 'NONE', ( #79 ) ) ;
#264 = AXIS2_PLACEMENT_3D ( 'NONE', #121, #15, #8 ) ;
#265 = CARTESIAN_POINT ( 'NONE',  ( 4.571725116661085880E-14, -1.603545311387987205E-15, 13.09394114698570988 ) ) ;
#266 = DIRECTION ( 'NONE',  ( 0.0000000000000000000, 1.000000000000000000, 0.0000000000000000000 ) ) ;
#267 = CARTESIAN_POINT ( 'NONE',  ( 1.316288464743861212E-13, -4.616918432785521081E-15, 37.69999999999999574 ) ) ;
#268 = SECURITY_CLASSIFICATION ( '', '', #136 ) ;
#269 = EDGE_CURVE ( 'NONE', #278, #278, #271, .T. ) ;
#270 = PLANE ( 'NONE',  #242 ) ;
#271 = CIRCLE ( 'NONE', #264, 0.2799999999999999156 ) ;
#272 = CARTESIAN_POINT ( 'NONE',  ( 0.0000000000000000000, 0.0000000000000000000, 0.0000000000000000000 ) ) ;
#273 = PERSON_AND_ORGANIZATION ( #29, #167 ) ;
#274 = CC_DESIGN_APPROVAL ( #229, ( #238 ) ) ;
#275 = CARTESIAN_POINT ( 'NONE',  ( 2.216146677675516400E-14, 0.3103844939755809329, 6.347296355333847728 ) ) ;
#276 = CALENDAR_DATE ( 2021, 1, 12 ) ;
#277 = ORIENTED_EDGE ( 'NONE', *, *, #161, .F. ) ;
#278 = VERTEX_POINT ( 'NONE', #139 ) ;
#279 = EDGE_LOOP ( 'NONE', ( #212 ) ) ;
#280 = AXIS2_PLACEMENT_3D ( 'NONE', #220, #23, #266 ) ;
#281 = CC_DESIGN_DATE_AND_TIME_ASSIGNMENT ( #123, #235, ( #249 ) ) ;
#282 = DIRECTION ( 'NONE',  ( 0.0000000000000000000, 1.000000000000000000, 0.0000000000000000000 ) ) ;
#283 = CC_DESIGN_SECURITY_CLASSIFICATION ( #268, ( #238 ) ) ;
ENDSEC;
END-ISO-10303-21;
