ISO-10303-21;
HEADER;
FILE_DESCRIPTION (( 'STEP AP203' ),
    '1' );
FILE_NAME ('968816.step',
    '2021-11-30T06:45:18',
    ( '' ),
    ( '' ),
    'SwSTEP 2.0',
    'SolidWorks 2019',
    '' );
FILE_SCHEMA (( 'CONFIG_CONTROL_DESIGN' ));
ENDSEC;

DATA;
#1 = EDGE_LOOP ( 'NONE', ( #207 ) ) ;
#2 = EDGE_LOOP ( 'NONE', ( #284 ) ) ;
#3 = SHAPE_DEFINITION_REPRESENTATION ( #69, #54 ) ;
#4 = EDGE_CURVE ( 'NONE', #124, #124, #297, .T. ) ;
#5 = CALENDAR_DATE ( 2021, 30, 11 ) ;
#6 = ORIENTED_EDGE ( 'NONE', *, *, #103, .F. ) ;
#7 = COORDINATED_UNIVERSAL_TIME_OFFSET ( 1, 0, .AHEAD. ) ;
#8 = AXIS2_PLACEMENT_3D ( 'NONE', #112, #46, #142 ) ;
#9 = DIRECTION ( 'NONE',  ( 3.491481338843133355E-15, -1.224646799147353207E-16, 1.000000000000000000 ) ) ;
#10 = ADVANCED_FACE ( 'NONE', ( #221, #97 ), #53, .T. ) ;
#11 = PRODUCT_DEFINITION ( 'UNKNOWN', '', #178, #279 ) ;
#12 = CC_DESIGN_APPROVAL ( #202, ( #185 ) ) ;
#13 = DIRECTION ( 'NONE',  ( -3.491481338843133355E-15, 1.224646799147353207E-16, -1.000000000000000000 ) ) ;
#14 = ADVANCED_FACE ( 'NONE', ( #89, #191 ), #121, .T. ) ;
#15 = CARTESIAN_POINT ( 'NONE',  ( 2.793185071074506684E-14, 1.108499999999998931, 8.000000000000000000 ) ) ;
#16 = CARTESIAN_POINT ( 'NONE',  ( 8.728703347107831416E-16, 1.108499999999998931, 0.2500000000000000000 ) ) ;
#17 = AXIS2_PLACEMENT_3D ( 'NONE', #301, #9, #194 ) ;
#18 = APPLICATION_PROTOCOL_DEFINITION ( 'international standard', 'config_control_design', 1994, #146 ) ;
#19 = VERTEX_POINT ( 'NONE', #275 ) ;
#20 = EDGE_LOOP ( 'NONE', ( #276 ) ) ;
#21 = ADVANCED_FACE ( 'NONE', ( #244 ), #115, .T. ) ;
#22 = CALENDAR_DATE ( 2021, 30, 11 ) ;
#23 = DIRECTION ( 'NONE',  ( -3.491481338843133355E-15, 1.224646799147353207E-16, -1.000000000000000000 ) ) ;
#24 = ORIENTED_EDGE ( 'NONE', *, *, #127, .T. ) ;
#25 = EDGE_LOOP ( 'NONE', ( #108 ) ) ;
#26 = FACE_OUTER_BOUND ( 'NONE', #184, .T. ) ;
#27 = PERSON_AND_ORGANIZATION ( #252, #197 ) ;
#28 = EDGE_LOOP ( 'NONE', ( #43 ) ) ;
#29 = ADVANCED_FACE ( 'NONE', ( #93 ), #293, .F. ) ;
#30 = DIRECTION ( 'NONE',  ( 4.275831445896958607E-31, 1.000000000000000000, 1.224646799147353207E-16 ) ) ;
#31 = CARTESIAN_POINT ( 'NONE',  ( -2.061298024351132156E-31, 7.230060202603856529E-33, -5.903792185336789160E-17 ) ) ;
#32 = CIRCLE ( 'NONE', #218, 0.9641624327025946073 ) ;
#33 = ADVANCED_FACE ( 'NONE', ( #239, #26 ), #237, .T. ) ;
#34 = DIRECTION ( 'NONE',  ( -3.491481338843133355E-15, 1.224646799147353207E-16, -1.000000000000000000 ) ) ;
#35 = CIRCLE ( 'NONE', #230, 0.9853844939755802557 ) ;
#36 = CC_DESIGN_SECURITY_CLASSIFICATION ( #185, ( #178 ) ) ;
#37 = VERTEX_POINT ( 'NONE', #179 ) ;
#38 = VERTEX_POINT ( 'NONE', #176 ) ;
#39 = CC_DESIGN_APPROVAL ( #242, ( #178 ) ) ;
#40 = CARTESIAN_POINT ( 'NONE',  ( 0.0000000000000000000, 0.9641624327025946073, 0.0000000000000000000 ) ) ;
#41 = ADVANCED_FACE ( 'NONE', ( #70, #165 ), #268, .T. ) ;
#42 = PERSON_AND_ORGANIZATION_ROLE ( 'classification_officer' ) ;
#43 = ORIENTED_EDGE ( 'NONE', *, *, #4, .F. ) ;
#44 = ORIENTED_EDGE ( 'NONE', *, *, #4, .T. ) ;
#45 = APPROVAL_DATE_TIME ( #210, #295 ) ;
#46 = DIRECTION ( 'NONE',  ( -3.491481338843133355E-15, 1.224646799147353207E-16, -1.000000000000000000 ) ) ;
#47 = CARTESIAN_POINT ( 'NONE',  ( -4.122596048702264312E-31, 1.446012040520771306E-32, -1.180758437067357832E-16 ) ) ;
#48 = CC_DESIGN_PERSON_AND_ORGANIZATION_ASSIGNMENT ( #88, #189, ( #178 ) ) ;
#49 = AXIS2_PLACEMENT_3D ( 'NONE', #120, #155, #294 ) ;
#50 = ADVANCED_FACE ( 'NONE', ( #243, #182 ), #158, .T. ) ;
#51 = AXIS2_PLACEMENT_3D ( 'NONE', #250, #220, #269 ) ;
#52 = PERSON_AND_ORGANIZATION_ROLE ( 'design_owner' ) ;
#53 = CONICAL_SURFACE ( 'NONE', #85, 1.108499999999998931, 0.5235987755982928205 ) ;
#54 = ADVANCED_BREP_SHAPE_REPRESENTATION ( '968816', ( #148, #139, #290 ), #128 ) ;
#55 = VERTEX_POINT ( 'NONE', #80 ) ;
#56 = EDGE_LOOP ( 'NONE', ( #68 ) ) ;
#57 = CARTESIAN_POINT ( 'NONE',  ( 2.886013015238225878E-14, 0.9549999999999978506, 8.265869798961826831 ) ) ;
#58 = EDGE_CURVE ( 'NONE', #226, #226, #224, .T. ) ;
#59 = APPROVAL_PERSON_ORGANIZATION ( #81, #295, #60 ) ;
#60 = APPROVAL_ROLE ( '' ) ;
#61 = CARTESIAN_POINT ( 'NONE',  ( 8.728703347107827472E-16, -3.061616997868381169E-17, 0.2499999999999998335 ) ) ;
#62 = ORIENTED_EDGE ( 'NONE', *, *, #174, .T. ) ;
#63 = DIRECTION ( 'NONE',  ( -3.491481338843133355E-15, 1.224646799147353207E-16, -1.000000000000000000 ) ) ;
#64 = PERSON_AND_ORGANIZATION ( #252, #197 ) ;
#65 = EDGE_LOOP ( 'NONE', ( #199 ) ) ;
#66 = DATE_AND_TIME ( #5, #272 ) ;
#67 = DIRECTION ( 'NONE',  ( -3.491481338843133355E-15, 1.224646799147353207E-16, -1.000000000000000000 ) ) ;
#68 = ORIENTED_EDGE ( 'NONE', *, *, #114, .T. ) ;
#69 = PRODUCT_DEFINITION_SHAPE ( 'NONE', 'NONE',  #11 ) ;
#70 = FACE_OUTER_BOUND ( 'NONE', #28, .T. ) ;
#71 = CIRCLE ( 'NONE', #75, 1.500000000000001554 ) ;
#72 = CALENDAR_DATE ( 2021, 30, 11 ) ;
#73 = PERSON_AND_ORGANIZATION_ROLE ( 'creator' ) ;
#74 = CARTESIAN_POINT ( 'NONE',  ( 2.793185071074506684E-14, 8.312418595403330656E-33, 8.000000000000000000 ) ) ;
#75 = AXIS2_PLACEMENT_3D ( 'NONE', #254, #34, #154 ) ;
#76 = DIRECTION ( 'NONE',  ( 0.0000000000000000000, 1.000000000000000000, 0.0000000000000000000 ) ) ;
#77 = ADVANCED_FACE ( 'NONE', ( #147 ), #251, .F. ) ;
#78 = APPLICATION_CONTEXT ( 'configuration controlled 3d designs of mechanical parts and assemblies' ) ;
#79 = EDGE_LOOP ( 'NONE', ( #164 ) ) ;
#80 = CARTESIAN_POINT ( 'NONE',  ( 6.284666409917640040E-14, 0.9549999999999979616, 18.00000000000000000 ) ) ;
#81 = PERSON_AND_ORGANIZATION ( #252, #197 ) ;
#82 = AXIS2_PLACEMENT_3D ( 'NONE', #31, #123, #98 ) ;
#83 = DIRECTION ( 'NONE',  ( 3.491481338843133355E-15, -1.224646799147353207E-16, 1.000000000000000000 ) ) ;
#84 = APPROVAL_STATUS ( 'not_yet_approved' ) ;
#85 = AXIS2_PLACEMENT_3D ( 'NONE', #215, #291, #163 ) ;
#86 = APPROVAL_STATUS ( 'not_yet_approved' ) ;
#87 = DIRECTION ( 'NONE',  ( 0.0000000000000000000, -1.000000000000000000, 0.0000000000000000000 ) ) ;
#88 = PERSON_AND_ORGANIZATION ( #252, #197 ) ;
#89 = FACE_OUTER_BOUND ( 'NONE', #65, .T. ) ;
#90 = EDGE_LOOP ( 'NONE', ( #228 ) ) ;
#91 = TOROIDAL_SURFACE ( 'NONE', #111, 2.955000000000000071, 2.000000000000000888 ) ;
#92 = DATE_AND_TIME ( #144, #122 ) ;
#93 = FACE_OUTER_BOUND ( 'NONE', #288, .T. ) ;
#94 = DIRECTION ( 'NONE',  ( -3.491481338843133355E-15, 1.224646799147353207E-16, -1.000000000000000000 ) ) ;
#95 = ADVANCED_FACE ( 'NONE', ( #298, #249 ), #91, .F. ) ;
#96 = CARTESIAN_POINT ( 'NONE',  ( 7.424923435037990254E-14, -2.604312564261416988E-15, 21.26582591874359807 ) ) ;
#97 = FACE_OUTER_BOUND ( 'NONE', #186, .T. ) ;
#98 = DIRECTION ( 'NONE',  ( -4.275831445896958607E-31, -1.000000000000000000, -1.224646799147353207E-16 ) ) ;
#99 = CARTESIAN_POINT ( 'NONE',  ( 6.284666409917640040E-14, -2.168404344971008868E-15, 18.00000000000000000 ) ) ;
#100 = CC_DESIGN_DATE_AND_TIME_ASSIGNMENT ( #66, #160, ( #11 ) ) ;
#101 = DIRECTION ( 'NONE',  ( 0.0000000000000000000, 1.000000000000000000, 0.0000000000000000000 ) ) ;
#102 = UNCERTAINTY_MEASURE_WITH_UNIT (LENGTH_MEASURE( 1.000000000000000082E-05 ), #177, 'distance_accuracy_value', 'NONE');
#103 = EDGE_CURVE ( 'NONE', #198, #198, #35, .T. ) ;
#104 = DIRECTION ( 'NONE',  ( -3.491481338843133355E-15, 1.224646799147353207E-16, -1.000000000000000000 ) ) ;
#105 = DIRECTION ( 'NONE',  ( 0.0000000000000000000, 1.000000000000000000, 0.0000000000000000000 ) ) ;
#106 = CARTESIAN_POINT ( 'NONE',  ( 1.745740669421566678E-13, -6.123233995736766085E-15, 50.00000000000000000 ) ) ;
#107 = PERSON_AND_ORGANIZATION_ROLE ( 'creator' ) ;
#108 = ORIENTED_EDGE ( 'NONE', *, *, #232, .T. ) ;
#109 = DIRECTION ( 'NONE',  ( -3.491481338843133355E-15, 1.224646799147353207E-16, -1.000000000000000000 ) ) ;
#110 = CONICAL_SURFACE ( 'NONE', #151, 0.9549999999999988498, 0.5235987755982947078 ) ;
#111 = AXIS2_PLACEMENT_3D ( 'NONE', #99, #145, #30 ) ;
#112 = CARTESIAN_POINT ( 'NONE',  ( 1.745740669421566678E-13, -6.123233995736766085E-15, 50.00000000000000000 ) ) ;
#113 = APPROVAL_DATE_TIME ( #92, #242 ) ;
#114 = EDGE_CURVE ( 'NONE', #37, #37, #303, .T. ) ;
#115 = PLANE ( 'NONE',  #17 ) ;
#116 = AXIS2_PLACEMENT_3D ( 'NONE', #285, #109, #248 ) ;
#117 = DIRECTION ( 'NONE',  ( -3.491481338843133355E-15, 1.224646799147353207E-16, -1.000000000000000000 ) ) ;
#118 = DATE_AND_TIME ( #22, #196 ) ;
#119 = FACE_OUTER_BOUND ( 'NONE', #137, .T. ) ;
#120 = CARTESIAN_POINT ( 'NONE',  ( 2.793185071074506684E-14, -9.797174393178825657E-16, 8.000000000000000000 ) ) ;
#121 = CONICAL_SURFACE ( 'NONE', #8, 1.200000000000001732, 0.7853981633974453924 ) ;
#122 = LOCAL_TIME ( 7, 45, 18.00000000000000000, #138 ) ;
#123 = DIRECTION ( 'NONE',  ( 3.491481338843133355E-15, -1.224646799147353207E-16, 1.000000000000000000 ) ) ;
#124 = VERTEX_POINT ( 'NONE', #16 ) ;
#125 = CIRCLE ( 'NONE', #51, 0.9549999999999988498 ) ;
#126 = CYLINDRICAL_SURFACE ( 'NONE', #253, 1.499999999999999112 ) ;
#127 = EDGE_CURVE ( 'NONE', #225, #225, #125, .T. ) ;
#128 =( GEOMETRIC_REPRESENTATION_CONTEXT ( 3 ) GLOBAL_UNCERTAINTY_ASSIGNED_CONTEXT ( ( #102 ) ) GLOBAL_UNIT_ASSIGNED_CONTEXT ( ( #177, #259, #130 ) ) REPRESENTATION_CONTEXT ( 'NONE', 'WORKASPACE' ) );
#129 = LOCAL_TIME ( 7, 45, 18.00000000000000000, #234 ) ;
#130 =( NAMED_UNIT ( * ) SI_UNIT ( $, .STERADIAN. ) SOLID_ANGLE_UNIT ( ) );
#131 = CARTESIAN_POINT ( 'NONE',  ( 7.424923435037990254E-14, -2.604312564261416988E-15, 21.26582591874359807 ) ) ;
#132 = DATE_TIME_ROLE ( 'classification_date' ) ;
#133 = EDGE_LOOP ( 'NONE', ( #62 ) ) ;
#134 = DATE_AND_TIME ( #287, #129 ) ;
#135 = ORIENTED_EDGE ( 'NONE', *, *, #200, .F. ) ;
#136 = AXIS2_PLACEMENT_3D ( 'NONE', #281, #261, #209 ) ;
#137 = EDGE_LOOP ( 'NONE', ( #241 ) ) ;
#138 = COORDINATED_UNIVERSAL_TIME_OFFSET ( 1, 0, .AHEAD. ) ;
#139 = MANIFOLD_SOLID_BREP ( 'Corps-Déplacer/Copier1[2]', #183 ) ;
#140 = EDGE_LOOP ( 'NONE', ( #135 ) ) ;
#141 = CARTESIAN_POINT ( 'NONE',  ( 0.0000000000000000000, 0.0000000000000000000, 0.0000000000000000000 ) ) ;
#142 = DIRECTION ( 'NONE',  ( 0.0000000000000000000, 1.000000000000000000, 0.0000000000000000000 ) ) ;
#143 = DIRECTION ( 'NONE',  ( 0.0000000000000000000, 1.000000000000000000, 0.0000000000000000000 ) ) ;
#144 = CALENDAR_DATE ( 2021, 30, 11 ) ;
#145 = DIRECTION ( 'NONE',  ( -3.491481338843133355E-15, 1.224646799147353207E-16, -1.000000000000000000 ) ) ;
#146 = APPLICATION_CONTEXT ( 'configuration controlled 3d designs of mechanical parts and assemblies' ) ;
#147 = FACE_OUTER_BOUND ( 'NONE', #192, .T. ) ;
#148 = MANIFOLD_SOLID_BREP ( 'Corps-Déplacer/Copier1[1]', #195 ) ;
#149 = AXIS2_PLACEMENT_3D ( 'NONE', #96, #94, #247 ) ;
#150 = DIRECTION ( 'NONE',  ( -3.491481338843133355E-15, 1.224646799147353207E-16, -1.000000000000000000 ) ) ;
#151 = AXIS2_PLACEMENT_3D ( 'NONE', #260, #104, #105 ) ;
#152 = APPLICATION_PROTOCOL_DEFINITION ( 'international standard', 'config_control_design', 1994, #78 ) ;
#153 = APPROVAL_PERSON_ORGANIZATION ( #27, #242, #267 ) ;
#154 = DIRECTION ( 'NONE',  ( 0.0000000000000000000, 1.000000000000000000, 0.0000000000000000000 ) ) ;
#155 = DIRECTION ( 'NONE',  ( -3.491481338843133355E-15, 1.224646799147353207E-16, -1.000000000000000000 ) ) ;
#156 = VERTEX_POINT ( 'NONE', #40 ) ;
#157 = EDGE_LOOP ( 'NONE', ( #188 ) ) ;
#158 = CYLINDRICAL_SURFACE ( 'NONE', #136, 0.9549999999999995159 ) ;
#159 = DIRECTION ( 'NONE',  ( -3.491481338843133355E-15, 1.224646799147353207E-16, -1.000000000000000000 ) ) ;
#160 = DATE_TIME_ROLE ( 'creation_date' ) ;
#161 = ORIENTED_EDGE ( 'NONE', *, *, #200, .T. ) ;
#162 = PERSON_AND_ORGANIZATION ( #252, #197 ) ;
#163 = DIRECTION ( 'NONE',  ( -3.474839773364434281E-31, -1.000000000000000000, -1.467120666421522907E-16 ) ) ;
#164 = ORIENTED_EDGE ( 'NONE', *, *, #58, .F. ) ;
#165 = FACE_OUTER_BOUND ( 'NONE', #56, .T. ) ;
#166 = CIRCLE ( 'NONE', #172, 0.9550000000000000711 ) ;
#167 = APPROVAL_PERSON_ORGANIZATION ( #64, #202, #245 ) ;
#168 = APPROVAL_DATE_TIME ( #134, #202 ) ;
#169 = PLANE ( 'NONE',  #256 ) ;
#170 = DIRECTION ( 'NONE',  ( 4.275831445896958607E-31, 1.000000000000000000, 1.224646799147353207E-16 ) ) ;
#171 = CARTESIAN_POINT ( 'NONE',  ( 6.405924284287275164E-14, -2.246895775456749140E-15, 18.34729635533384595 ) ) ;
#172 = AXIS2_PLACEMENT_3D ( 'NONE', #296, #117, #143 ) ;
#173 = AXIS2_PLACEMENT_3D ( 'NONE', #74, #83, #212 ) ;
#174 = EDGE_CURVE ( 'NONE', #55, #55, #166, .T. ) ;
#175 = FACE_OUTER_BOUND ( 'NONE', #79, .T. ) ;
#176 = CARTESIAN_POINT ( 'NONE',  ( 1.735266225405037467E-13, 1.499999999999995559, 49.70000000000000284 ) ) ;
#177 =( LENGTH_UNIT ( ) NAMED_UNIT ( * ) SI_UNIT ( .MILLI., .METRE. ) );
#178 = PRODUCT_DEFINITION_FORMATION_WITH_SPECIFIED_SOURCE ( 'ANY', '', #273, .NOT_KNOWN. ) ;
#179 = CARTESIAN_POINT ( 'NONE',  ( 2.793185071074506684E-14, 1.108499999999998931, 8.000000000000000000 ) ) ;
#180 = DIRECTION ( 'NONE',  ( 3.474839773364434281E-31, 1.000000000000000000, 1.467120666421522907E-16 ) ) ;
#181 = FACE_OUTER_BOUND ( 'NONE', #140, .T. ) ;
#182 = FACE_OUTER_BOUND ( 'NONE', #133, .T. ) ;
#183 = CLOSED_SHELL ( 'NONE', ( #77, #10, #41, #21 ) ) ;
#184 = EDGE_LOOP ( 'NONE', ( #161 ) ) ;
#185 = SECURITY_CLASSIFICATION ( '', '', #289 ) ;
#186 = EDGE_LOOP ( 'NONE', ( #44 ) ) ;
#187 = PERSON_AND_ORGANIZATION ( #252, #197 ) ;
#188 = ORIENTED_EDGE ( 'NONE', *, *, #292, .T. ) ;
#189 = PERSON_AND_ORGANIZATION_ROLE ( 'design_supplier' ) ;
#190 = DIRECTION ( 'NONE',  ( -3.491481338843133355E-15, 1.224646799147353207E-16, -1.000000000000000000 ) ) ;
#191 = FACE_BOUND ( 'NONE', #25, .T. ) ;
#192 = EDGE_LOOP ( 'NONE', ( #238 ) ) ;
#193 = LOCAL_TIME ( 7, 45, 18.00000000000000000, #240 ) ;
#194 = DIRECTION ( 'NONE',  ( -4.275831445896958607E-31, -1.000000000000000000, -1.224646799147353207E-16 ) ) ;
#195 = CLOSED_SHELL ( 'NONE', ( #29, #236, #50, #95, #33, #265, #14, #206 ) ) ;
#196 = LOCAL_TIME ( 7, 45, 18.00000000000000000, #263 ) ;
#197 = ORGANIZATION ( 'UNSPECIFIED', 'UNSPECIFIED', '' ) ;
#198 = VERTEX_POINT ( 'NONE', #300 ) ;
#199 = ORIENTED_EDGE ( 'NONE', *, *, #292, .F. ) ;
#200 = EDGE_CURVE ( 'NONE', #262, #262, #211, .T. ) ;
#201 = CARTESIAN_POINT ( 'NONE',  ( 0.0000000000000000000, 0.0000000000000000000, 0.0000000000000000000 ) ) ;
#202 = APPROVAL ( #84, 'UNSPECIFIED' ) ;
#203 = CC_DESIGN_PERSON_AND_ORGANIZATION_ASSIGNMENT ( #283, #42, ( #185 ) ) ;
#204 = MECHANICAL_CONTEXT ( 'NONE', #146, 'mechanical' ) ;
#205 = DIRECTION ( 'NONE',  ( 4.275831445896958607E-31, 1.000000000000000000, 1.224646799147353454E-16 ) ) ;
#206 = ADVANCED_FACE ( 'NONE', ( #119 ), #169, .F. ) ;
#207 = ORIENTED_EDGE ( 'NONE', *, *, #174, .F. ) ;
#208 = ORIENTED_EDGE ( 'NONE', *, *, #58, .T. ) ;
#209 = DIRECTION ( 'NONE',  ( 4.275831445896958607E-31, 1.000000000000000000, 1.224646799147352961E-16 ) ) ;
#210 = DATE_AND_TIME ( #72, #193 ) ;
#211 = CIRCLE ( 'NONE', #149, 1.499999999999996669 ) ;
#212 = DIRECTION ( 'NONE',  ( -4.275831445896958607E-31, -1.000000000000000000, -1.224646799147353207E-16 ) ) ;
#213 = DIRECTION ( 'NONE',  ( 3.491481338843133355E-15, -1.224646799147353207E-16, 1.000000000000000000 ) ) ;
#214 = APPROVAL_STATUS ( 'not_yet_approved' ) ;
#215 = CARTESIAN_POINT ( 'NONE',  ( 8.728703347107827472E-16, -3.061616997868381169E-17, 0.2499999999999998335 ) ) ;
#216 = EDGE_LOOP ( 'NONE', ( #264 ) ) ;
#217 = CC_DESIGN_DATE_AND_TIME_ASSIGNMENT ( #118, #132, ( #185 ) ) ;
#218 = AXIS2_PLACEMENT_3D ( 'NONE', #47, #190, #219 ) ;
#219 = DIRECTION ( 'NONE',  ( 4.275831445896958607E-31, 1.000000000000000000, 1.224646799147353207E-16 ) ) ;
#220 = DIRECTION ( 'NONE',  ( -3.491481338843133355E-15, 1.224646799147353207E-16, -1.000000000000000000 ) ) ;
#221 = FACE_BOUND ( 'NONE', #90, .T. ) ;
#222 = AXIS2_PLACEMENT_3D ( 'NONE', #131, #213, #87 ) ;
#223 = EDGE_CURVE ( 'NONE', #156, #156, #32, .T. ) ;
#224 = CIRCLE ( 'NONE', #116, 1.108500000000000041 ) ;
#225 = VERTEX_POINT ( 'NONE', #57 ) ;
#226 = VERTEX_POINT ( 'NONE', #15 ) ;
#227 = CC_DESIGN_PERSON_AND_ORGANIZATION_ASSIGNMENT ( #162, #107, ( #178 ) ) ;
#228 = ORIENTED_EDGE ( 'NONE', *, *, #223, .F. ) ;
#229 = CARTESIAN_POINT ( 'NONE',  ( 0.0000000000000000000, 0.0000000000000000000, 0.0000000000000000000 ) ) ;
#230 = AXIS2_PLACEMENT_3D ( 'NONE', #171, #13, #76 ) ;
#231 = PERSON_AND_ORGANIZATION ( #252, #197 ) ;
#232 = EDGE_CURVE ( 'NONE', #19, #19, #274, .T. ) ;
#233 = DIRECTION ( 'NONE',  ( 0.0000000000000000000, 0.0000000000000000000, 1.000000000000000000 ) ) ;
#234 = COORDINATED_UNIVERSAL_TIME_OFFSET ( 1, 0, .AHEAD. ) ;
#235 = EDGE_LOOP ( 'NONE', ( #6 ) ) ;
#236 = ADVANCED_FACE ( 'NONE', ( #175, #258 ), #110, .T. ) ;
#237 = CONICAL_SURFACE ( 'NONE', #222, 1.499999999999996669, 0.1745329251994263697 ) ;
#238 = ORIENTED_EDGE ( 'NONE', *, *, #223, .T. ) ;
#239 = FACE_BOUND ( 'NONE', #235, .T. ) ;
#240 = COORDINATED_UNIVERSAL_TIME_OFFSET ( 1, 0, .AHEAD. ) ;
#241 = ORIENTED_EDGE ( 'NONE', *, *, #232, .F. ) ;
#242 = APPROVAL ( #86, 'UNSPECIFIED' ) ;
#243 = FACE_OUTER_BOUND ( 'NONE', #216, .T. ) ;
#244 = FACE_OUTER_BOUND ( 'NONE', #2, .T. ) ;
#245 = APPROVAL_ROLE ( '' ) ;
#246 = CC_DESIGN_APPROVAL ( #295, ( #11 ) ) ;
#247 = DIRECTION ( 'NONE',  ( 0.0000000000000000000, 1.000000000000000000, 0.0000000000000000000 ) ) ;
#248 = DIRECTION ( 'NONE',  ( 0.0000000000000000000, 1.000000000000000000, 0.0000000000000000000 ) ) ;
#249 = FACE_OUTER_BOUND ( 'NONE', #20, .T. ) ;
#250 = CARTESIAN_POINT ( 'NONE',  ( 2.886013015238225878E-14, -1.012277099146737755E-15, 8.265869798961826831 ) ) ;
#251 = PLANE ( 'NONE',  #82 ) ;
#252 = PERSON ( 'UNSPECIFIED', 'UNSPECIFIED', 'UNSPECIFIED', ('UNSPECIFIED'), ('UNSPECIFIED'), ('UNSPECIFIED') ) ;
#253 = AXIS2_PLACEMENT_3D ( 'NONE', #229, #159, #280 ) ;
#254 = CARTESIAN_POINT ( 'NONE',  ( 1.735266225405037467E-13, -6.086494591762345225E-15, 49.70000000000000284 ) ) ;
#255 = EDGE_LOOP ( 'NONE', ( #24 ) ) ;
#256 = AXIS2_PLACEMENT_3D ( 'NONE', #270, #67, #170 ) ;
#257 = AXIS2_PLACEMENT_3D ( 'NONE', #106, #150, #101 ) ;
#258 = FACE_BOUND ( 'NONE', #255, .T. ) ;
#259 =( NAMED_UNIT ( * ) PLANE_ANGLE_UNIT ( ) SI_UNIT ( $, .RADIAN. ) );
#260 = CARTESIAN_POINT ( 'NONE',  ( 2.886013015238225878E-14, -1.012277099146737755E-15, 8.265869798961826831 ) ) ;
#261 = DIRECTION ( 'NONE',  ( -3.491481338843133355E-15, 1.224646799147353207E-16, -1.000000000000000000 ) ) ;
#262 = VERTEX_POINT ( 'NONE', #278 ) ;
#263 = COORDINATED_UNIVERSAL_TIME_OFFSET ( 1, 0, .AHEAD. ) ;
#264 = ORIENTED_EDGE ( 'NONE', *, *, #127, .F. ) ;
#265 = ADVANCED_FACE ( 'NONE', ( #181, #277 ), #126, .T. ) ;
#266 = CC_DESIGN_PERSON_AND_ORGANIZATION_ASSIGNMENT ( #187, #73, ( #11 ) ) ;
#267 = APPROVAL_ROLE ( '' ) ;
#268 = CYLINDRICAL_SURFACE ( 'NONE', #282, 1.108499999999999597 ) ;
#269 = DIRECTION ( 'NONE',  ( 0.0000000000000000000, 1.000000000000000000, 0.0000000000000000000 ) ) ;
#270 = CARTESIAN_POINT ( 'NONE',  ( 1.745740669421566678E-13, 8.998558695971067645E-33, 50.00000000000000000 ) ) ;
#271 = AXIS2_PLACEMENT_3D ( 'NONE', #61, #23, #180 ) ;
#272 = LOCAL_TIME ( 7, 45, 18.00000000000000000, #7 ) ;
#273 = PRODUCT ( '968816', '968816', '', ( #204 ) ) ;
#274 = CIRCLE ( 'NONE', #257, 1.200000000000001732 ) ;
#275 = CARTESIAN_POINT ( 'NONE',  ( 1.745740669421566678E-13, 1.199999999999995515, 50.00000000000000000 ) ) ;
#276 = ORIENTED_EDGE ( 'NONE', *, *, #103, .T. ) ;
#277 = FACE_OUTER_BOUND ( 'NONE', #157, .T. ) ;
#278 = CARTESIAN_POINT ( 'NONE',  ( 7.424923435037990254E-14, 1.499999999999994005, 21.26582591874359807 ) ) ;
#279 = DESIGN_CONTEXT ( 'detailed design', #78, 'design' ) ;
#280 = DIRECTION ( 'NONE',  ( 4.275831445896958607E-31, 1.000000000000000000, 1.224646799147353454E-16 ) ) ;
#281 = CARTESIAN_POINT ( 'NONE',  ( 0.0000000000000000000, 0.0000000000000000000, 0.0000000000000000000 ) ) ;
#282 = AXIS2_PLACEMENT_3D ( 'NONE', #141, #63, #205 ) ;
#283 = PERSON_AND_ORGANIZATION ( #252, #197 ) ;
#284 = ORIENTED_EDGE ( 'NONE', *, *, #114, .F. ) ;
#285 = CARTESIAN_POINT ( 'NONE',  ( 2.793185071074506684E-14, -9.797174393178825657E-16, 8.000000000000000000 ) ) ;
#286 = PRODUCT_RELATED_PRODUCT_CATEGORY ( 'detail', '', ( #273 ) ) ;
#287 = CALENDAR_DATE ( 2021, 30, 11 ) ;
#288 = EDGE_LOOP ( 'NONE', ( #208 ) ) ;
#289 = SECURITY_CLASSIFICATION_LEVEL ( 'unclassified' ) ;
#290 = AXIS2_PLACEMENT_3D ( 'NONE', #201, #233, #302 ) ;
#291 = DIRECTION ( 'NONE',  ( 3.491481338843133355E-15, -1.224646799147353207E-16, 1.000000000000000000 ) ) ;
#292 = EDGE_CURVE ( 'NONE', #38, #38, #71, .T. ) ;
#293 = PLANE ( 'NONE',  #173 ) ;
#294 = DIRECTION ( 'NONE',  ( 0.0000000000000000000, 1.000000000000000000, 0.0000000000000000000 ) ) ;
#295 = APPROVAL ( #214, 'UNSPECIFIED' ) ;
#296 = CARTESIAN_POINT ( 'NONE',  ( 6.284666409917640040E-14, -2.204364238465235428E-15, 18.00000000000000000 ) ) ;
#297 = CIRCLE ( 'NONE', #271, 1.108499999999998931 ) ;
#298 = FACE_OUTER_BOUND ( 'NONE', #1, .T. ) ;
#299 = CC_DESIGN_PERSON_AND_ORGANIZATION_ASSIGNMENT ( #231, #52, ( #273 ) ) ;
#300 = CARTESIAN_POINT ( 'NONE',  ( 6.405924284287275164E-14, 0.9853844939755780352, 18.34729635533384595 ) ) ;
#301 = CARTESIAN_POINT ( 'NONE',  ( 2.793185071074506684E-14, 8.312418595403330656E-33, 8.000000000000000000 ) ) ;
#302 = DIRECTION ( 'NONE',  ( 1.000000000000000000, 0.0000000000000000000, 0.0000000000000000000 ) ) ;
#303 = CIRCLE ( 'NONE', #49, 1.108500000000000041 ) ;
ENDSEC;
END-ISO-10303-21;
