ISO-10303-21;
HEADER;
FILE_DESCRIPTION (( 'STEP AP203' ),
    '1' );
FILE_NAME ('968815.step',
    '2021-11-30T06:45:18',
    ( '' ),
    ( '' ),
    'SwSTEP 2.0',
    'SolidWorks 2019',
    '' );
FILE_SCHEMA (( 'CONFIG_CONTROL_DESIGN' ));
ENDSEC;

DATA;
#1 = CALENDAR_DATE ( 2021, 30, 11 ) ;
#2 = DIRECTION ( 'NONE',  ( 3.491481338843133355E-15, -1.224646799147353207E-16, 1.000000000000000000 ) ) ;
#3 = DIRECTION ( 'NONE',  ( -3.491481338843133355E-15, 1.224646799147353207E-16, -1.000000000000000000 ) ) ;
#4 = DATE_AND_TIME ( #208, #39 ) ;
#5 = CYLINDRICAL_SURFACE ( 'NONE', #211, 0.9199999999999993738 ) ;
#6 = VERTEX_POINT ( 'NONE', #162 ) ;
#7 = PERSON_AND_ORGANIZATION_ROLE ( 'creator' ) ;
#8 = AXIS2_PLACEMENT_3D ( 'NONE', #154, #108, #224 ) ;
#9 = CARTESIAN_POINT ( 'NONE',  ( -3.972941948095870436E-31, 1.393520448127605906E-32, -1.137895799097200195E-16 ) ) ;
#10 = CIRCLE ( 'NONE', #8, 1.500000000000001554 ) ;
#11 = DIRECTION ( 'NONE',  ( 0.0000000000000000000, 1.000000000000000000, 0.0000000000000000000 ) ) ;
#12 = EDGE_LOOP ( 'NONE', ( #29 ) ) ;
#13 = FACE_OUTER_BOUND ( 'NONE', #35, .T. ) ;
#14 = AXIS2_PLACEMENT_3D ( 'NONE', #175, #223, #201 ) ;
#15 = DIRECTION ( 'NONE',  ( -3.491481338843133355E-15, 1.224646799147353207E-16, -1.000000000000000000 ) ) ;
#16 = PRODUCT_RELATED_PRODUCT_CATEGORY ( 'detail', '', ( #82 ) ) ;
#17 = DIRECTION ( 'NONE',  ( 3.491481338843133355E-15, -1.224646799147353207E-16, 1.000000000000000000 ) ) ;
#18 = CARTESIAN_POINT ( 'NONE',  ( 0.0000000000000000000, 0.0000000000000000000, 0.0000000000000000000 ) ) ;
#19 = AXIS2_PLACEMENT_3D ( 'NONE', #219, #110, #183 ) ;
#20 = DIRECTION ( 'NONE',  ( 0.0000000000000000000, 1.000000000000000000, 0.0000000000000000000 ) ) ;
#21 = CC_DESIGN_PERSON_AND_ORGANIZATION_ASSIGNMENT ( #147, #126, ( #267 ) ) ;
#22 = CARTESIAN_POINT ( 'NONE',  ( 6.284666409917640040E-14, 0.9199999999999975975, 18.00000000000000000 ) ) ;
#23 = CARTESIAN_POINT ( 'NONE',  ( 1.735266225405037467E-13, 1.499999999999995559, 49.70000000000000284 ) ) ;
#24 = AXIS2_PLACEMENT_3D ( 'NONE', #85, #137, #84 ) ;
#25 = FACE_OUTER_BOUND ( 'NONE', #56, .T. ) ;
#26 = DIRECTION ( 'NONE',  ( 3.491481338843133355E-15, -1.224646799147353207E-16, 1.000000000000000000 ) ) ;
#27 = PERSON_AND_ORGANIZATION ( #199, #78 ) ;
#28 = CARTESIAN_POINT ( 'NONE',  ( 2.793185071074506684E-14, -9.797174393178825657E-16, 8.000000000000000000 ) ) ;
#29 = ORIENTED_EDGE ( 'NONE', *, *, #169, .F. ) ;
#30 = UNCERTAINTY_MEASURE_WITH_UNIT (LENGTH_MEASURE( 1.000000000000000082E-05 ), #210, 'distance_accuracy_value', 'NONE');
#31 = EDGE_LOOP ( 'NONE', ( #80 ) ) ;
#32 = LOCAL_TIME ( 7, 45, 18.00000000000000000, #274 ) ;
#33 = ADVANCED_FACE ( 'NONE', ( #99, #13 ), #150, .T. ) ;
#34 = ORIENTED_EDGE ( 'NONE', *, *, #239, .T. ) ;
#35 = EDGE_LOOP ( 'NONE', ( #130 ) ) ;
#36 = DIRECTION ( 'NONE',  ( -3.491481338843133355E-15, 1.224646799147353207E-16, -1.000000000000000000 ) ) ;
#37 = PRODUCT_DEFINITION_SHAPE ( 'NONE', 'NONE',  #86 ) ;
#38 = EDGE_CURVE ( 'NONE', #281, #281, #192, .T. ) ;
#39 = LOCAL_TIME ( 7, 45, 18.00000000000000000, #229 ) ;
#40 = DIRECTION ( 'NONE',  ( 0.0000000000000000000, 1.000000000000000000, 0.0000000000000000000 ) ) ;
#41 = DIRECTION ( 'NONE',  ( -3.491481338843133355E-15, 1.224646799147353207E-16, -1.000000000000000000 ) ) ;
#42 = FACE_OUTER_BOUND ( 'NONE', #261, .T. ) ;
#43 = CARTESIAN_POINT ( 'NONE',  ( 1.745740669421566678E-13, 1.199999999999995515, 50.00000000000000000 ) ) ;
#44 = CIRCLE ( 'NONE', #202, 0.9199999999999998179 ) ;
#45 = CARTESIAN_POINT ( 'NONE',  ( 0.0000000000000000000, 0.9291624327025944652, 0.0000000000000000000 ) ) ;
#46 = VERTEX_POINT ( 'NONE', #45 ) ;
#47 = EDGE_CURVE ( 'NONE', #157, #157, #180, .T. ) ;
#48 = FACE_OUTER_BOUND ( 'NONE', #204, .T. ) ;
#49 = VERTEX_POINT ( 'NONE', #43 ) ;
#50 = APPROVAL_ROLE ( '' ) ;
#51 = AXIS2_PLACEMENT_3D ( 'NONE', #269, #3, #298 ) ;
#52 = PERSON_AND_ORGANIZATION_ROLE ( 'classification_officer' ) ;
#53 = COORDINATED_UNIVERSAL_TIME_OFFSET ( 1, 0, .AHEAD. ) ;
#54 = EDGE_LOOP ( 'NONE', ( #195 ) ) ;
#55 = CONICAL_SURFACE ( 'NONE', #300, 1.499999999999996669, 0.1745329251994263697 ) ;
#56 = EDGE_LOOP ( 'NONE', ( #131 ) ) ;
#57 = EDGE_LOOP ( 'NONE', ( #187 ) ) ;
#58 = ORIENTED_EDGE ( 'NONE', *, *, #239, .F. ) ;
#59 = ADVANCED_BREP_SHAPE_REPRESENTATION ( '968815', ( #111, #206, #119 ), #118 ) ;
#60 = CARTESIAN_POINT ( 'NONE',  ( 1.745740669421566678E-13, -6.123233995736766085E-15, 50.00000000000000000 ) ) ;
#61 = CARTESIAN_POINT ( 'NONE',  ( 7.494227546279796761E-14, -2.628621174207518509E-15, 21.46432078243022445 ) ) ;
#62 = FACE_OUTER_BOUND ( 'NONE', #238, .T. ) ;
#63 = APPLICATION_CONTEXT ( 'configuration controlled 3d designs of mechanical parts and assemblies' ) ;
#64 = FACE_OUTER_BOUND ( 'NONE', #148, .T. ) ;
#65 = CARTESIAN_POINT ( 'NONE',  ( 0.0000000000000000000, 0.0000000000000000000, 0.0000000000000000000 ) ) ;
#66 = DIRECTION ( 'NONE',  ( -4.275831445896958607E-31, -1.000000000000000000, -1.224646799147353207E-16 ) ) ;
#67 = APPROVAL_DATE_TIME ( #303, #193 ) ;
#68 = CONICAL_SURFACE ( 'NONE', #293, 1.073499999999998789, 0.5235987755982923764 ) ;
#69 = CARTESIAN_POINT ( 'NONE',  ( 2.886013015238225878E-14, 0.9199999999999978195, 8.265869798961826831 ) ) ;
#70 = CC_DESIGN_PERSON_AND_ORGANIZATION_ASSIGNMENT ( #97, #73, ( #267 ) ) ;
#71 = DIRECTION ( 'NONE',  ( -3.491481338843133355E-15, 1.224646799147353207E-16, -1.000000000000000000 ) ) ;
#72 = DIRECTION ( 'NONE',  ( 1.000000000000000000, 0.0000000000000000000, 0.0000000000000000000 ) ) ;
#73 = PERSON_AND_ORGANIZATION_ROLE ( 'design_supplier' ) ;
#74 = VERTEX_POINT ( 'NONE', #23 ) ;
#75 = CONICAL_SURFACE ( 'NONE', #166, 1.200000000000001732, 0.7853981633974453924 ) ;
#76 = CC_DESIGN_PERSON_AND_ORGANIZATION_ASSIGNMENT ( #179, #115, ( #82 ) ) ;
#77 = DIRECTION ( 'NONE',  ( 0.0000000000000000000, 1.000000000000000000, 0.0000000000000000000 ) ) ;
#78 = ORGANIZATION ( 'UNSPECIFIED', 'UNSPECIFIED', '' ) ;
#79 = CARTESIAN_POINT ( 'NONE',  ( 2.886013015238225878E-14, -1.012277099146737755E-15, 8.265869798961826831 ) ) ;
#80 = ORIENTED_EDGE ( 'NONE', *, *, #169, .T. ) ;
#81 = EDGE_LOOP ( 'NONE', ( #295 ) ) ;
#82 = PRODUCT ( '968815', '968815', '', ( #140 ) ) ;
#83 = FACE_OUTER_BOUND ( 'NONE', #245, .T. ) ;
#84 = DIRECTION ( 'NONE',  ( 0.0000000000000000000, 1.000000000000000000, 0.0000000000000000000 ) ) ;
#85 = CARTESIAN_POINT ( 'NONE',  ( 2.886013015238225878E-14, -1.012277099146737755E-15, 8.265869798961826831 ) ) ;
#86 = PRODUCT_DEFINITION ( 'UNKNOWN', '', #267, #272 ) ;
#87 = CARTESIAN_POINT ( 'NONE',  ( 2.793185071074506684E-14, 1.073499999999998789, 8.000000000000000000 ) ) ;
#88 = EDGE_CURVE ( 'NONE', #46, #46, #149, .T. ) ;
#89 = VERTEX_POINT ( 'NONE', #231 ) ;
#90 = CONICAL_SURFACE ( 'NONE', #24, 0.9199999999999988187, 0.5235987755982938197 ) ;
#91 = LOCAL_TIME ( 7, 45, 18.00000000000000000, #262 ) ;
#92 = DIRECTION ( 'NONE',  ( -3.491481338843133355E-15, 1.224646799147353207E-16, -1.000000000000000000 ) ) ;
#93 = FACE_OUTER_BOUND ( 'NONE', #57, .T. ) ;
#94 = CLOSED_SHELL ( 'NONE', ( #132, #283, #259, #268 ) ) ;
#95 = CALENDAR_DATE ( 2021, 30, 11 ) ;
#96 = DIRECTION ( 'NONE',  ( 0.0000000000000000000, 1.000000000000000000, 0.0000000000000000000 ) ) ;
#97 = PERSON_AND_ORGANIZATION ( #199, #78 ) ;
#98 = EDGE_CURVE ( 'NONE', #257, #257, #171, .T. ) ;
#99 = FACE_OUTER_BOUND ( 'NONE', #191, .T. ) ;
#100 = AXIS2_PLACEMENT_3D ( 'NONE', #9, #128, #286 ) ;
#101 = FACE_BOUND ( 'NONE', #81, .T. ) ;
#102 = ORIENTED_EDGE ( 'NONE', *, *, #159, .T. ) ;
#103 = EDGE_LOOP ( 'NONE', ( #292 ) ) ;
#104 = EDGE_LOOP ( 'NONE', ( #265 ) ) ;
#105 = CC_DESIGN_DATE_AND_TIME_ASSIGNMENT ( #165, #241, ( #86 ) ) ;
#106 = APPROVAL_PERSON_ORGANIZATION ( #237, #109, #287 ) ;
#107 = CARTESIAN_POINT ( 'NONE',  ( 2.793185071074506684E-14, -9.797174393178825657E-16, 8.000000000000000000 ) ) ;
#108 = DIRECTION ( 'NONE',  ( -3.491481338843133355E-15, 1.224646799147353207E-16, -1.000000000000000000 ) ) ;
#109 = APPROVAL ( #124, 'UNSPECIFIED' ) ;
#110 = DIRECTION ( 'NONE',  ( 3.491481338843133355E-15, -1.224646799147353207E-16, 1.000000000000000000 ) ) ;
#111 = MANIFOLD_SOLID_BREP ( 'Corps-Déplacer/Copier1[1]', #188 ) ;
#112 = FACE_OUTER_BOUND ( 'NONE', #264, .T. ) ;
#113 =( NAMED_UNIT ( * ) PLANE_ANGLE_UNIT ( ) SI_UNIT ( $, .RADIAN. ) );
#114 = CALENDAR_DATE ( 2021, 30, 11 ) ;
#115 = PERSON_AND_ORGANIZATION_ROLE ( 'design_owner' ) ;
#116 = CC_DESIGN_DATE_AND_TIME_ASSIGNMENT ( #186, #215, ( #285 ) ) ;
#117 = APPROVAL_STATUS ( 'not_yet_approved' ) ;
#118 =( GEOMETRIC_REPRESENTATION_CONTEXT ( 3 ) GLOBAL_UNCERTAINTY_ASSIGNED_CONTEXT ( ( #30 ) ) GLOBAL_UNIT_ASSIGNED_CONTEXT ( ( #210, #113, #255 ) ) REPRESENTATION_CONTEXT ( 'NONE', 'WORKASPACE' ) );
#119 = AXIS2_PLACEMENT_3D ( 'NONE', #65, #139, #72 ) ;
#120 = FACE_OUTER_BOUND ( 'NONE', #54, .T. ) ;
#121 = DIRECTION ( 'NONE',  ( -3.588132173986470624E-31, -1.000000000000000000, -1.009969420107597301E-16 ) ) ;
#122 = CARTESIAN_POINT ( 'NONE',  ( 8.728703347107833388E-16, 1.073499999999998789, 0.2500000000000000000 ) ) ;
#123 = AXIS2_PLACEMENT_3D ( 'NONE', #185, #2, #66 ) ;
#124 = APPROVAL_STATUS ( 'not_yet_approved' ) ;
#125 = ORIENTED_EDGE ( 'NONE', *, *, #173, .F. ) ;
#126 = PERSON_AND_ORGANIZATION_ROLE ( 'creator' ) ;
#127 = ADVANCED_FACE ( 'NONE', ( #101, #289 ), #55, .T. ) ;
#128 = DIRECTION ( 'NONE',  ( -3.491481338843133355E-15, 1.224646799147353207E-16, -1.000000000000000000 ) ) ;
#129 = AXIS2_PLACEMENT_3D ( 'NONE', #174, #250, #301 ) ;
#130 = ORIENTED_EDGE ( 'NONE', *, *, #178, .T. ) ;
#131 = ORIENTED_EDGE ( 'NONE', *, *, #98, .F. ) ;
#132 = ADVANCED_FACE ( 'NONE', ( #177 ), #209, .F. ) ;
#133 = DIRECTION ( 'NONE',  ( 4.275831445896958607E-31, 1.000000000000000000, 1.224646799147353207E-16 ) ) ;
#134 = AXIS2_PLACEMENT_3D ( 'NONE', #107, #71, #40 ) ;
#135 = FACE_BOUND ( 'NONE', #31, .T. ) ;
#136 = ADVANCED_FACE ( 'NONE', ( #112, #222 ), #90, .T. ) ;
#137 = DIRECTION ( 'NONE',  ( -3.491481338843133355E-15, 1.224646799147353207E-16, -1.000000000000000000 ) ) ;
#138 = CARTESIAN_POINT ( 'NONE',  ( 6.284666409917640040E-14, -2.204364238465235428E-15, 18.00000000000000000 ) ) ;
#139 = DIRECTION ( 'NONE',  ( 0.0000000000000000000, 0.0000000000000000000, 1.000000000000000000 ) ) ;
#140 = MECHANICAL_CONTEXT ( 'NONE', #63, 'mechanical' ) ;
#141 = PERSON_AND_ORGANIZATION ( #199, #78 ) ;
#142 = DIRECTION ( 'NONE',  ( 3.491481338843133355E-15, -1.224646799147353207E-16, 1.000000000000000000 ) ) ;
#143 = CIRCLE ( 'NONE', #266, 1.073499999999998789 ) ;
#144 = VERTEX_POINT ( 'NONE', #22 ) ;
#145 = CC_DESIGN_APPROVAL ( #193, ( #285 ) ) ;
#146 = ORIENTED_EDGE ( 'NONE', *, *, #38, .F. ) ;
#147 = PERSON_AND_ORGANIZATION ( #199, #78 ) ;
#148 = EDGE_LOOP ( 'NONE', ( #234 ) ) ;
#149 = CIRCLE ( 'NONE', #100, 0.9291624327025944652 ) ;
#150 = CYLINDRICAL_SURFACE ( 'NONE', #256, 1.499999999999999112 ) ;
#151 = ORIENTED_EDGE ( 'NONE', *, *, #190, .F. ) ;
#152 = AXIS2_PLACEMENT_3D ( 'NONE', #28, #214, #96 ) ;
#153 = CARTESIAN_POINT ( 'NONE',  ( 8.728703347107829444E-16, -3.061616997868381785E-17, 0.2499999999999998890 ) ) ;
#154 = CARTESIAN_POINT ( 'NONE',  ( 1.735266225405037467E-13, -6.086494591762345225E-15, 49.70000000000000284 ) ) ;
#155 = CYLINDRICAL_SURFACE ( 'NONE', #282, 1.073499999999999455 ) ;
#156 = CARTESIAN_POINT ( 'NONE',  ( 1.745740669421566678E-13, -6.123233995736766085E-15, 50.00000000000000000 ) ) ;
#157 = VERTEX_POINT ( 'NONE', #252 ) ;
#158 = PLANE ( 'NONE',  #123 ) ;
#159 = EDGE_CURVE ( 'NONE', #251, #251, #143, .T. ) ;
#160 = PLANE ( 'NONE',  #243 ) ;
#161 = FACE_OUTER_BOUND ( 'NONE', #288, .T. ) ;
#162 = CARTESIAN_POINT ( 'NONE',  ( 7.494227546279796761E-14, 1.499999999999994005, 21.46432078243022445 ) ) ;
#163 = PERSON_AND_ORGANIZATION ( #199, #78 ) ;
#164 = SECURITY_CLASSIFICATION_LEVEL ( 'unclassified' ) ;
#165 = DATE_AND_TIME ( #236, #197 ) ;
#166 = AXIS2_PLACEMENT_3D ( 'NONE', #60, #92, #20 ) ;
#167 = DIRECTION ( 'NONE',  ( -3.491481338843133355E-15, 1.224646799147353207E-16, -1.000000000000000000 ) ) ;
#168 = APPLICATION_CONTEXT ( 'configuration controlled 3d designs of mechanical parts and assemblies' ) ;
#169 = EDGE_CURVE ( 'NONE', #49, #49, #275, .T. ) ;
#170 = DIRECTION ( 'NONE',  ( -3.491481338843133355E-15, 1.224646799147353207E-16, -1.000000000000000000 ) ) ;
#171 = CIRCLE ( 'NONE', #235, 0.9199999999999988187 ) ;
#172 = DIRECTION ( 'NONE',  ( -3.491481338843133355E-15, 1.224646799147353207E-16, -1.000000000000000000 ) ) ;
#173 = EDGE_CURVE ( 'NONE', #144, #144, #44, .T. ) ;
#174 = CARTESIAN_POINT ( 'NONE',  ( 6.284666409917640040E-14, -2.168404344971008868E-15, 18.00000000000000000 ) ) ;
#175 = CARTESIAN_POINT ( 'NONE',  ( 7.494227546279796761E-14, -2.628621174207518509E-15, 21.46432078243022445 ) ) ;
#176 = CIRCLE ( 'NONE', #14, 1.499999999999996669 ) ;
#177 = FACE_OUTER_BOUND ( 'NONE', #104, .T. ) ;
#178 = EDGE_CURVE ( 'NONE', #74, #74, #10, .T. ) ;
#179 = PERSON_AND_ORGANIZATION ( #199, #78 ) ;
#180 = CIRCLE ( 'NONE', #246, 0.9503844939755804466 ) ;
#181 = CC_DESIGN_SECURITY_CLASSIFICATION ( #285, ( #267 ) ) ;
#182 = APPROVAL_ROLE ( '' ) ;
#183 = DIRECTION ( 'NONE',  ( -4.275831445896958607E-31, -1.000000000000000000, -1.224646799147353207E-16 ) ) ;
#184 = CC_DESIGN_PERSON_AND_ORGANIZATION_ASSIGNMENT ( #27, #7, ( #86 ) ) ;
#185 = CARTESIAN_POINT ( 'NONE',  ( 2.793185071074506684E-14, 8.049960633437502291E-33, 8.000000000000000000 ) ) ;
#186 = DATE_AND_TIME ( #114, #91 ) ;
#187 = ORIENTED_EDGE ( 'NONE', *, *, #38, .T. ) ;
#188 = CLOSED_SHELL ( 'NONE', ( #297, #136, #277, #233, #127, #33, #249, #228 ) ) ;
#189 = EDGE_LOOP ( 'NONE', ( #232 ) ) ;
#190 = EDGE_CURVE ( 'NONE', #6, #6, #176, .T. ) ;
#191 = EDGE_LOOP ( 'NONE', ( #151 ) ) ;
#192 = CIRCLE ( 'NONE', #152, 1.073499999999999899 ) ;
#193 = APPROVAL ( #227, 'UNSPECIFIED' ) ;
#194 = ORIENTED_EDGE ( 'NONE', *, *, #178, .F. ) ;
#195 = ORIENTED_EDGE ( 'NONE', *, *, #173, .T. ) ;
#196 = TOROIDAL_SURFACE ( 'NONE', #129, 2.920000000000000373, 2.000000000000000888 ) ;
#197 = LOCAL_TIME ( 7, 45, 18.00000000000000000, #53 ) ;
#198 = PLANE ( 'NONE',  #51 ) ;
#199 = PERSON ( 'UNSPECIFIED', 'UNSPECIFIED', 'UNSPECIFIED', ('UNSPECIFIED'), ('UNSPECIFIED'), ('UNSPECIFIED') ) ;
#200 = DIRECTION ( 'NONE',  ( 0.0000000000000000000, -1.000000000000000000, 0.0000000000000000000 ) ) ;
#201 = DIRECTION ( 'NONE',  ( 0.0000000000000000000, 1.000000000000000000, 0.0000000000000000000 ) ) ;
#202 = AXIS2_PLACEMENT_3D ( 'NONE', #138, #15, #271 ) ;
#203 = CARTESIAN_POINT ( 'NONE',  ( 8.728703347107829444E-16, -3.061616997868381785E-17, 0.2499999999999998890 ) ) ;
#204 = EDGE_LOOP ( 'NONE', ( #58 ) ) ;
#205 = PERSON_AND_ORGANIZATION ( #199, #78 ) ;
#206 = MANIFOLD_SOLID_BREP ( 'Corps-Déplacer/Copier1[2]', #94 ) ;
#207 = DIRECTION ( 'NONE',  ( 4.275831445896958607E-31, 1.000000000000000000, 1.224646799147353207E-16 ) ) ;
#208 = CALENDAR_DATE ( 2021, 30, 11 ) ;
#209 = PLANE ( 'NONE',  #19 ) ;
#210 =( LENGTH_UNIT ( ) NAMED_UNIT ( * ) SI_UNIT ( .MILLI., .METRE. ) );
#211 = AXIS2_PLACEMENT_3D ( 'NONE', #244, #172, #133 ) ;
#212 = APPROVAL ( #117, 'UNSPECIFIED' ) ;
#213 = ORIENTED_EDGE ( 'NONE', *, *, #88, .F. ) ;
#214 = DIRECTION ( 'NONE',  ( -3.491481338843133355E-15, 1.224646799147353207E-16, -1.000000000000000000 ) ) ;
#215 = DATE_TIME_ROLE ( 'classification_date' ) ;
#216 = APPROVAL_DATE_TIME ( #290, #109 ) ;
#217 = CC_DESIGN_PERSON_AND_ORGANIZATION_ASSIGNMENT ( #163, #52, ( #285 ) ) ;
#218 = CARTESIAN_POINT ( 'NONE',  ( 0.0000000000000000000, 0.0000000000000000000, 0.0000000000000000000 ) ) ;
#219 = CARTESIAN_POINT ( 'NONE',  ( -1.986470974047935218E-31, 6.967602240638029532E-33, -5.689478995486000974E-17 ) ) ;
#220 = CIRCLE ( 'NONE', #134, 1.073499999999999899 ) ;
#221 = LOCAL_TIME ( 7, 45, 18.00000000000000000, #260 ) ;
#222 = FACE_BOUND ( 'NONE', #258, .T. ) ;
#223 = DIRECTION ( 'NONE',  ( -3.491481338843133355E-15, 1.224646799147353207E-16, -1.000000000000000000 ) ) ;
#224 = DIRECTION ( 'NONE',  ( 0.0000000000000000000, 1.000000000000000000, 0.0000000000000000000 ) ) ;
#225 = APPROVAL_PERSON_ORGANIZATION ( #205, #212, #182 ) ;
#226 = APPLICATION_PROTOCOL_DEFINITION ( 'international standard', 'config_control_design', 1994, #168 ) ;
#227 = APPROVAL_STATUS ( 'not_yet_approved' ) ;
#228 = ADVANCED_FACE ( 'NONE', ( #248 ), #198, .F. ) ;
#229 = COORDINATED_UNIVERSAL_TIME_OFFSET ( 1, 0, .AHEAD. ) ;
#230 = DIRECTION ( 'NONE',  ( -4.275831445896958607E-31, -1.000000000000000000, -1.224646799147353207E-16 ) ) ;
#231 = CARTESIAN_POINT ( 'NONE',  ( 2.793185071074506684E-14, 1.073499999999998789, 8.000000000000000000 ) ) ;
#232 = ORIENTED_EDGE ( 'NONE', *, *, #190, .T. ) ;
#233 = ADVANCED_FACE ( 'NONE', ( #83, #296 ), #196, .F. ) ;
#234 = ORIENTED_EDGE ( 'NONE', *, *, #159, .F. ) ;
#235 = AXIS2_PLACEMENT_3D ( 'NONE', #79, #240, #11 ) ;
#236 = CALENDAR_DATE ( 2021, 30, 11 ) ;
#237 = PERSON_AND_ORGANIZATION ( #199, #78 ) ;
#238 = EDGE_LOOP ( 'NONE', ( #34 ) ) ;
#239 = EDGE_CURVE ( 'NONE', #89, #89, #220, .T. ) ;
#240 = DIRECTION ( 'NONE',  ( -3.491481338843133355E-15, 1.224646799147353207E-16, -1.000000000000000000 ) ) ;
#241 = DATE_TIME_ROLE ( 'creation_date' ) ;
#242 = ORIENTED_EDGE ( 'NONE', *, *, #98, .T. ) ;
#243 = AXIS2_PLACEMENT_3D ( 'NONE', #254, #142, #230 ) ;
#244 = CARTESIAN_POINT ( 'NONE',  ( 0.0000000000000000000, 0.0000000000000000000, 0.0000000000000000000 ) ) ;
#245 = EDGE_LOOP ( 'NONE', ( #125 ) ) ;
#246 = AXIS2_PLACEMENT_3D ( 'NONE', #284, #167, #77 ) ;
#247 = DIRECTION ( 'NONE',  ( 3.588132173986470624E-31, 1.000000000000000000, 1.009969420107597301E-16 ) ) ;
#248 = FACE_OUTER_BOUND ( 'NONE', #12, .T. ) ;
#249 = ADVANCED_FACE ( 'NONE', ( #42, #135 ), #75, .T. ) ;
#250 = DIRECTION ( 'NONE',  ( -3.491481338843133355E-15, 1.224646799147353207E-16, -1.000000000000000000 ) ) ;
#251 = VERTEX_POINT ( 'NONE', #122 ) ;
#252 = CARTESIAN_POINT ( 'NONE',  ( 6.405924284287275164E-14, 0.9503844939755782262, 18.34729635533384595 ) ) ;
#253 = APPLICATION_PROTOCOL_DEFINITION ( 'international standard', 'config_control_design', 1994, #63 ) ;
#254 = CARTESIAN_POINT ( 'NONE',  ( 2.793185071074506684E-14, 8.049960633437502291E-33, 8.000000000000000000 ) ) ;
#255 =( NAMED_UNIT ( * ) SI_UNIT ( $, .STERADIAN. ) SOLID_ANGLE_UNIT ( ) );
#256 = AXIS2_PLACEMENT_3D ( 'NONE', #218, #170, #291 ) ;
#257 = VERTEX_POINT ( 'NONE', #69 ) ;
#258 = EDGE_LOOP ( 'NONE', ( #242 ) ) ;
#259 = ADVANCED_FACE ( 'NONE', ( #64, #62 ), #155, .T. ) ;
#260 = COORDINATED_UNIVERSAL_TIME_OFFSET ( 1, 0, .AHEAD. ) ;
#261 = EDGE_LOOP ( 'NONE', ( #194 ) ) ;
#262 = COORDINATED_UNIVERSAL_TIME_OFFSET ( 1, 0, .AHEAD. ) ;
#263 = AXIS2_PLACEMENT_3D ( 'NONE', #156, #279, #270 ) ;
#264 = EDGE_LOOP ( 'NONE', ( #146 ) ) ;
#265 = ORIENTED_EDGE ( 'NONE', *, *, #88, .T. ) ;
#266 = AXIS2_PLACEMENT_3D ( 'NONE', #153, #36, #247 ) ;
#267 = PRODUCT_DEFINITION_FORMATION_WITH_SPECIFIED_SOURCE ( 'ANY', '', #82, .NOT_KNOWN. ) ;
#268 = ADVANCED_FACE ( 'NONE', ( #48 ), #160, .T. ) ;
#269 = CARTESIAN_POINT ( 'NONE',  ( 1.745740669421566678E-13, 8.998558695971067645E-33, 50.00000000000000000 ) ) ;
#270 = DIRECTION ( 'NONE',  ( 0.0000000000000000000, 1.000000000000000000, 0.0000000000000000000 ) ) ;
#271 = DIRECTION ( 'NONE',  ( 0.0000000000000000000, 1.000000000000000000, 0.0000000000000000000 ) ) ;
#272 = DESIGN_CONTEXT ( 'detailed design', #168, 'design' ) ;
#273 = FACE_BOUND ( 'NONE', #299, .T. ) ;
#274 = COORDINATED_UNIVERSAL_TIME_OFFSET ( 1, 0, .AHEAD. ) ;
#275 = CIRCLE ( 'NONE', #263, 1.200000000000001732 ) ;
#276 = CC_DESIGN_APPROVAL ( #212, ( #86 ) ) ;
#277 = ADVANCED_FACE ( 'NONE', ( #25, #120 ), #5, .T. ) ;
#278 = SHAPE_DEFINITION_REPRESENTATION ( #37, #59 ) ;
#279 = DIRECTION ( 'NONE',  ( -3.491481338843133355E-15, 1.224646799147353207E-16, -1.000000000000000000 ) ) ;
#280 = APPROVAL_DATE_TIME ( #4, #212 ) ;
#281 = VERTEX_POINT ( 'NONE', #87 ) ;
#282 = AXIS2_PLACEMENT_3D ( 'NONE', #18, #41, #207 ) ;
#283 = ADVANCED_FACE ( 'NONE', ( #273, #161 ), #68, .T. ) ;
#284 = CARTESIAN_POINT ( 'NONE',  ( 6.405924284287275164E-14, -2.246895775456749140E-15, 18.34729635533384595 ) ) ;
#285 = SECURITY_CLASSIFICATION ( '', '', #164 ) ;
#286 = DIRECTION ( 'NONE',  ( 4.275831445896959482E-31, 1.000000000000000000, 1.224646799147353207E-16 ) ) ;
#287 = APPROVAL_ROLE ( '' ) ;
#288 = EDGE_LOOP ( 'NONE', ( #102 ) ) ;
#289 = FACE_OUTER_BOUND ( 'NONE', #189, .T. ) ;
#290 = DATE_AND_TIME ( #95, #221 ) ;
#291 = DIRECTION ( 'NONE',  ( 4.275831445896958607E-31, 1.000000000000000000, 1.224646799147353454E-16 ) ) ;
#292 = ORIENTED_EDGE ( 'NONE', *, *, #47, .T. ) ;
#293 = AXIS2_PLACEMENT_3D ( 'NONE', #203, #26, #121 ) ;
#294 = APPROVAL_PERSON_ORGANIZATION ( #141, #193, #50 ) ;
#295 = ORIENTED_EDGE ( 'NONE', *, *, #47, .F. ) ;
#296 = FACE_OUTER_BOUND ( 'NONE', #103, .T. ) ;
#297 = ADVANCED_FACE ( 'NONE', ( #93 ), #158, .F. ) ;
#298 = DIRECTION ( 'NONE',  ( 4.275831445896958607E-31, 1.000000000000000000, 1.224646799147353207E-16 ) ) ;
#299 = EDGE_LOOP ( 'NONE', ( #213 ) ) ;
#300 = AXIS2_PLACEMENT_3D ( 'NONE', #61, #17, #200 ) ;
#301 = DIRECTION ( 'NONE',  ( 4.275831445896959482E-31, 1.000000000000000000, 1.224646799147353207E-16 ) ) ;
#302 = CC_DESIGN_APPROVAL ( #109, ( #267 ) ) ;
#303 = DATE_AND_TIME ( #1, #32 ) ;
ENDSEC;
END-ISO-10303-21;
