ISO-10303-21;
HEADER;
FILE_DESCRIPTION (( 'STEP AP203' ),
    '1' );
FILE_NAME ('968737.step',
    '2021-12-01T14:04:27',
    ( '' ),
    ( '' ),
    'SwSTEP 2.0',
    'SolidWorks 2019',
    '' );
FILE_SCHEMA (( 'CONFIG_CONTROL_DESIGN' ));
ENDSEC;

DATA;
#1 = CIRCLE ( 'NONE', #99, 1.069999999999998952 ) ;
#2 = AXIS2_PLACEMENT_3D ( 'NONE', #209, #279, #251 ) ;
#3 = CARTESIAN_POINT ( 'NONE',  ( 7.494227546279798024E-14, -2.628621174207518904E-15, 21.46432078243022801 ) ) ;
#4 = ORIENTED_EDGE ( 'NONE', *, *, #150, .T. ) ;
#5 = DATE_AND_TIME ( #236, #256 ) ;
#6 = EDGE_LOOP ( 'NONE', ( #286 ) ) ;
#7 = ADVANCED_FACE ( 'NONE', ( #167 ), #222, .T. ) ;
#8 = ORIENTED_EDGE ( 'NONE', *, *, #200, .F. ) ;
#9 = CALENDAR_DATE ( 2021, 1, 12 ) ;
#10 = EDGE_LOOP ( 'NONE', ( #97 ) ) ;
#11 = CALENDAR_DATE ( 2021, 1, 12 ) ;
#12 = FACE_BOUND ( 'NONE', #197, .T. ) ;
#13 = COORDINATED_UNIVERSAL_TIME_OFFSET ( 1, 0, .AHEAD. ) ;
#14 = DIRECTION ( 'NONE',  ( 3.491481338843133355E-15, -1.224646799147353207E-16, 1.000000000000000000 ) ) ;
#15 = SECURITY_CLASSIFICATION_LEVEL ( 'unclassified' ) ;
#16 = CARTESIAN_POINT ( 'NONE',  ( 1.745740669421566678E-13, 8.998558695971067645E-33, 50.00000000000000000 ) ) ;
#17 = PERSON ( 'UNSPECIFIED', 'UNSPECIFIED', 'UNSPECIFIED', ('UNSPECIFIED'), ('UNSPECIFIED'), ('UNSPECIFIED') ) ;
#18 = DIRECTION ( 'NONE',  ( -3.491481338843133355E-15, 1.224646799147353207E-16, -1.000000000000000000 ) ) ;
#19 = FACE_BOUND ( 'NONE', #28, .T. ) ;
#20 = MANIFOLD_SOLID_BREP ( 'Corps-Déplacer/Copier1[1]', #152 ) ;
#21 =( LENGTH_UNIT ( ) NAMED_UNIT ( * ) SI_UNIT ( .MILLI., .METRE. ) );
#22 = CC_DESIGN_DATE_AND_TIME_ASSIGNMENT ( #186, #280, ( #68 ) ) ;
#23 = CARTESIAN_POINT ( 'NONE',  ( 0.0000000000000000000, 0.0000000000000000000, 0.0000000000000000000 ) ) ;
#24 = TOROIDAL_SURFACE ( 'NONE', #2, 2.920000000000000373, 2.000000000000000000 ) ;
#25 = EDGE_LOOP ( 'NONE', ( #165 ) ) ;
#26 = CIRCLE ( 'NONE', #145, 0.9200000000000002620 ) ;
#27 = DIRECTION ( 'NONE',  ( -3.491481338843133355E-15, 1.224646799147353207E-16, -1.000000000000000000 ) ) ;
#28 = EDGE_LOOP ( 'NONE', ( #217 ) ) ;
#29 = DIRECTION ( 'NONE',  ( 0.0000000000000000000, 0.0000000000000000000, 1.000000000000000000 ) ) ;
#30 = DESIGN_CONTEXT ( 'detailed design', #112, 'design' ) ;
#31 = EDGE_CURVE ( 'NONE', #143, #143, #265, .T. ) ;
#32 = ORIENTED_EDGE ( 'NONE', *, *, #260, .T. ) ;
#33 = PLANE ( 'NONE',  #203 ) ;
#34 = EDGE_LOOP ( 'NONE', ( #8 ) ) ;
#35 = DATE_AND_TIME ( #11, #73 ) ;
#36 = ADVANCED_FACE ( 'NONE', ( #61 ), #33, .F. ) ;
#37 = EDGE_LOOP ( 'NONE', ( #169 ) ) ;
#38 = APPROVAL_PERSON_ORGANIZATION ( #271, #46, #101 ) ;
#39 = DIRECTION ( 'NONE',  ( -3.491481338843133355E-15, 1.224646799147353207E-16, -1.000000000000000000 ) ) ;
#40 = PERSON_AND_ORGANIZATION ( #17, #189 ) ;
#41 = CARTESIAN_POINT ( 'NONE',  ( 0.0000000000000000000, 0.0000000000000000000, 0.0000000000000000000 ) ) ;
#42 = EDGE_CURVE ( 'NONE', #49, #49, #137, .T. ) ;
#43 = AXIS2_PLACEMENT_3D ( 'NONE', #57, #39, #291 ) ;
#44 = DIRECTION ( 'NONE',  ( -3.491481338843133355E-15, 1.224646799147353207E-16, -1.000000000000000000 ) ) ;
#45 = CARTESIAN_POINT ( 'NONE',  ( -3.957976538035230961E-31, 1.388271288888289750E-32, -1.133609535300184776E-16 ) ) ;
#46 = APPROVAL ( #81, 'UNSPECIFIED' ) ;
#47 = CARTESIAN_POINT ( 'NONE',  ( 7.494227546279798024E-14, -2.628621174207518904E-15, 21.46432078243022801 ) ) ;
#48 = EDGE_CURVE ( 'NONE', #233, #233, #72, .T. ) ;
#49 = VERTEX_POINT ( 'NONE', #92 ) ;
#50 = APPROVAL_PERSON_ORGANIZATION ( #172, #215, #287 ) ;
#51 = VERTEX_POINT ( 'NONE', #187 ) ;
#52 =( NAMED_UNIT ( * ) PLANE_ANGLE_UNIT ( ) SI_UNIT ( $, .RADIAN. ) );
#53 = AXIS2_PLACEMENT_3D ( 'NONE', #45, #257, #154 ) ;
#54 = AXIS2_PLACEMENT_3D ( 'NONE', #84, #131, #176 ) ;
#55 = VERTEX_POINT ( 'NONE', #90 ) ;
#56 = FACE_OUTER_BOUND ( 'NONE', #37, .T. ) ;
#57 = CARTESIAN_POINT ( 'NONE',  ( 1.735266225405037467E-13, -6.086494591762345225E-15, 49.70000000000000284 ) ) ;
#58 = COORDINATED_UNIVERSAL_TIME_OFFSET ( 1, 0, .AHEAD. ) ;
#59 = EDGE_LOOP ( 'NONE', ( #147 ) ) ;
#60 = ADVANCED_BREP_SHAPE_REPRESENTATION ( '968737', ( #20, #111, #120 ), #78 ) ;
#61 = FACE_OUTER_BOUND ( 'NONE', #270, .T. ) ;
#62 = CC_DESIGN_APPROVAL ( #215, ( #204 ) ) ;
#63 = EDGE_LOOP ( 'NONE', ( #4 ) ) ;
#64 = CYLINDRICAL_SURFACE ( 'NONE', #249, 0.9199999999999995959 ) ;
#65 = FACE_OUTER_BOUND ( 'NONE', #239, .T. ) ;
#66 = CC_DESIGN_SECURITY_CLASSIFICATION ( #244, ( #204 ) ) ;
#67 = CARTESIAN_POINT ( 'NONE',  ( 6.405924284287275164E-14, -2.246895775456749140E-15, 18.34729635533384595 ) ) ;
#68 = PRODUCT_DEFINITION ( 'UNKNOWN', '', #204, #30 ) ;
#69 = DIRECTION ( 'NONE',  ( -3.491481338843133355E-15, 1.224646799147353207E-16, -1.000000000000000000 ) ) ;
#70 = APPROVAL_DATE_TIME ( #5, #122 ) ;
#71 = CARTESIAN_POINT ( 'NONE',  ( 1.735266225405037467E-13, 1.499999999999995559, 49.70000000000000284 ) ) ;
#72 = CIRCLE ( 'NONE', #43, 1.500000000000001554 ) ;
#73 = LOCAL_TIME ( 15, 4, 27.00000000000000000, #58 ) ;
#74 = APPROVAL_STATUS ( 'not_yet_approved' ) ;
#75 = EDGE_LOOP ( 'NONE', ( #76 ) ) ;
#76 = ORIENTED_EDGE ( 'NONE', *, *, #42, .F. ) ;
#77 = CLOSED_SHELL ( 'NONE', ( #178, #263, #282, #7 ) ) ;
#78 =( GEOMETRIC_REPRESENTATION_CONTEXT ( 3 ) GLOBAL_UNCERTAINTY_ASSIGNED_CONTEXT ( ( #116 ) ) GLOBAL_UNIT_ASSIGNED_CONTEXT ( ( #21, #52, #300 ) ) REPRESENTATION_CONTEXT ( 'NONE', 'WORKASPACE' ) );
#79 = ORIENTED_EDGE ( 'NONE', *, *, #150, .F. ) ;
#80 = CARTESIAN_POINT ( 'NONE',  ( 2.883896417162832445E-14, -1.011534696479630343E-15, 8.259807621135337286 ) ) ;
#81 = APPROVAL_STATUS ( 'not_yet_approved' ) ;
#82 = CARTESIAN_POINT ( 'NONE',  ( 8.728703347107829444E-16, -3.061616997868381785E-17, 0.2499999999999998890 ) ) ;
#83 = AXIS2_PLACEMENT_3D ( 'NONE', #226, #108, #225 ) ;
#84 = CARTESIAN_POINT ( 'NONE',  ( 8.728703347107829444E-16, -3.061616997868381785E-17, 0.2499999999999998890 ) ) ;
#85 = FACE_OUTER_BOUND ( 'NONE', #269, .T. ) ;
#86 = DIRECTION ( 'NONE',  ( -3.491481338843133355E-15, 1.224646799147353207E-16, -1.000000000000000000 ) ) ;
#87 = DIRECTION ( 'NONE',  ( -3.491481338843133355E-15, 1.224646799147353207E-16, -1.000000000000000000 ) ) ;
#88 = CYLINDRICAL_SURFACE ( 'NONE', #142, 1.499999999999999112 ) ;
#89 = EDGE_CURVE ( 'NONE', #238, #238, #1, .T. ) ;
#90 = CARTESIAN_POINT ( 'NONE',  ( 2.793185071074506684E-14, 1.069999999999998952, 8.000000000000000000 ) ) ;
#91 = DIRECTION ( 'NONE',  ( 4.275831445896958607E-31, 1.000000000000000000, 1.224646799147353207E-16 ) ) ;
#92 = CARTESIAN_POINT ( 'NONE',  ( 2.793185071074506684E-14, 1.069999999999998952, 8.000000000000000000 ) ) ;
#93 = CC_DESIGN_PERSON_AND_ORGANIZATION_ASSIGNMENT ( #160, #138, ( #68 ) ) ;
#94 = AXIS2_PLACEMENT_3D ( 'NONE', #218, #201, #119 ) ;
#95 = CIRCLE ( 'NONE', #83, 1.070000000000000062 ) ;
#96 = DIRECTION ( 'NONE',  ( -3.491481338843133355E-15, 1.224646799147353207E-16, -1.000000000000000000 ) ) ;
#97 = ORIENTED_EDGE ( 'NONE', *, *, #48, .T. ) ;
#98 = ORIENTED_EDGE ( 'NONE', *, *, #185, .F. ) ;
#99 = AXIS2_PLACEMENT_3D ( 'NONE', #82, #285, #173 ) ;
#100 = DIRECTION ( 'NONE',  ( 3.491481338843133355E-15, -1.224646799147353207E-16, 1.000000000000000000 ) ) ;
#101 = APPROVAL_ROLE ( '' ) ;
#102 = DIRECTION ( 'NONE',  ( -3.491481338843133355E-15, 1.224646799147353207E-16, -1.000000000000000000 ) ) ;
#103 = PLANE ( 'NONE',  #216 ) ;
#104 = PERSON_AND_ORGANIZATION_ROLE ( 'design_supplier' ) ;
#105 = CARTESIAN_POINT ( 'NONE',  ( 0.0000000000000000000, 0.0000000000000000000, 0.0000000000000000000 ) ) ;
#106 = FACE_OUTER_BOUND ( 'NONE', #63, .T. ) ;
#107 = DIRECTION ( 'NONE',  ( 0.0000000000000000000, 1.000000000000000000, 0.0000000000000000000 ) ) ;
#108 = DIRECTION ( 'NONE',  ( -3.491481338843133355E-15, 1.224646799147353207E-16, -1.000000000000000000 ) ) ;
#109 = COORDINATED_UNIVERSAL_TIME_OFFSET ( 1, 0, .AHEAD. ) ;
#110 = EDGE_CURVE ( 'NONE', #234, #234, #174, .T. ) ;
#111 = MANIFOLD_SOLID_BREP ( 'Corps-Déplacer/Copier1[2]', #77 ) ;
#112 = APPLICATION_CONTEXT ( 'configuration controlled 3d designs of mechanical parts and assemblies' ) ;
#113 = PERSON_AND_ORGANIZATION ( #17, #189 ) ;
#114 = LOCAL_TIME ( 15, 4, 27.00000000000000000, #253 ) ;
#115 = VERTEX_POINT ( 'NONE', #240 ) ;
#116 = UNCERTAINTY_MEASURE_WITH_UNIT (LENGTH_MEASURE( 1.000000000000000082E-05 ), #21, 'distance_accuracy_value', 'NONE');
#117 = CARTESIAN_POINT ( 'NONE',  ( 0.0000000000000000000, 0.9256624327025945176, 0.0000000000000000000 ) ) ;
#118 = AXIS2_PLACEMENT_3D ( 'NONE', #80, #102, #171 ) ;
#119 = DIRECTION ( 'NONE',  ( 0.0000000000000000000, 1.000000000000000000, 0.0000000000000000000 ) ) ;
#120 = AXIS2_PLACEMENT_3D ( 'NONE', #144, #29, #163 ) ;
#121 = CARTESIAN_POINT ( 'NONE',  ( 2.793185071074506684E-14, 8.023714837240924244E-33, 8.000000000000000000 ) ) ;
#122 = APPROVAL ( #74, 'UNSPECIFIED' ) ;
#123 = ADVANCED_FACE ( 'NONE', ( #56, #298 ), #88, .T. ) ;
#124 = EDGE_LOOP ( 'NONE', ( #245 ) ) ;
#125 = ADVANCED_FACE ( 'NONE', ( #85, #206 ), #181, .T. ) ;
#126 = ORIENTED_EDGE ( 'NONE', *, *, #260, .F. ) ;
#127 = AXIS2_PLACEMENT_3D ( 'NONE', #67, #180, #107 ) ;
#128 = PERSON_AND_ORGANIZATION ( #17, #189 ) ;
#129 = ORIENTED_EDGE ( 'NONE', *, *, #89, .T. ) ;
#130 = CARTESIAN_POINT ( 'NONE',  ( 2.883896417162832445E-14, -1.011534696479630343E-15, 8.259807621135337286 ) ) ;
#131 = DIRECTION ( 'NONE',  ( 3.491481338843133355E-15, -1.224646799147353207E-16, 1.000000000000000000 ) ) ;
#132 = AXIS2_PLACEMENT_3D ( 'NONE', #130, #44, #134 ) ;
#133 = PERSON_AND_ORGANIZATION_ROLE ( 'classification_officer' ) ;
#134 = DIRECTION ( 'NONE',  ( 0.0000000000000000000, 1.000000000000000000, 0.0000000000000000000 ) ) ;
#135 = DIRECTION ( 'NONE',  ( 4.275831445896958607E-31, 1.000000000000000000, 1.224646799147353207E-16 ) ) ;
#136 = CARTESIAN_POINT ( 'NONE',  ( -1.978988269017615481E-31, 6.941356444441448748E-33, -5.668047676500923881E-17 ) ) ;
#137 = CIRCLE ( 'NONE', #94, 1.070000000000000062 ) ;
#138 = PERSON_AND_ORGANIZATION_ROLE ( 'creator' ) ;
#139 = APPLICATION_CONTEXT ( 'configuration controlled 3d designs of mechanical parts and assemblies' ) ;
#140 = CARTESIAN_POINT ( 'NONE',  ( 8.728703347107833388E-16, 1.069999999999998952, 0.2500000000000000000 ) ) ;
#141 = PERSON_AND_ORGANIZATION ( #17, #189 ) ;
#142 = AXIS2_PLACEMENT_3D ( 'NONE', #105, #86, #230 ) ;
#143 = VERTEX_POINT ( 'NONE', #188 ) ;
#144 = CARTESIAN_POINT ( 'NONE',  ( 0.0000000000000000000, 0.0000000000000000000, 0.0000000000000000000 ) ) ;
#145 = AXIS2_PLACEMENT_3D ( 'NONE', #277, #18, #157 ) ;
#146 = ORIENTED_EDGE ( 'NONE', *, *, #191, .T. ) ;
#147 = ORIENTED_EDGE ( 'NONE', *, *, #200, .T. ) ;
#148 = APPROVAL_STATUS ( 'not_yet_approved' ) ;
#149 = EDGE_LOOP ( 'NONE', ( #98 ) ) ;
#150 = EDGE_CURVE ( 'NONE', #213, #213, #166, .T. ) ;
#151 = ORIENTED_EDGE ( 'NONE', *, *, #42, .T. ) ;
#152 = CLOSED_SHELL ( 'NONE', ( #36, #125, #276, #241, #214, #123, #229, #208 ) ) ;
#153 = CARTESIAN_POINT ( 'NONE',  ( 1.745740669421566678E-13, -6.123233995736766085E-15, 50.00000000000000000 ) ) ;
#154 = DIRECTION ( 'NONE',  ( 4.275831445896958607E-31, 1.000000000000000000, 1.224646799147353454E-16 ) ) ;
#155 = FACE_OUTER_BOUND ( 'NONE', #247, .T. ) ;
#156 = CIRCLE ( 'NONE', #262, 1.200000000000001732 ) ;
#157 = DIRECTION ( 'NONE',  ( 0.0000000000000000000, 1.000000000000000000, 0.0000000000000000000 ) ) ;
#158 = FACE_OUTER_BOUND ( 'NONE', #34, .T. ) ;
#159 = CC_DESIGN_PERSON_AND_ORGANIZATION_ASSIGNMENT ( #40, #199, ( #204 ) ) ;
#160 = PERSON_AND_ORGANIZATION ( #17, #189 ) ;
#161 = CONICAL_SURFACE ( 'NONE', #54, 1.069999999999998952, 0.5235987755982927094 ) ;
#162 = VERTEX_POINT ( 'NONE', #259 ) ;
#163 = DIRECTION ( 'NONE',  ( 1.000000000000000000, 0.0000000000000000000, 0.0000000000000000000 ) ) ;
#164 = COORDINATED_UNIVERSAL_TIME_OFFSET ( 1, 0, .AHEAD. ) ;
#165 = ORIENTED_EDGE ( 'NONE', *, *, #48, .F. ) ;
#166 = CIRCLE ( 'NONE', #53, 0.9256624327025945176 ) ;
#167 = FACE_OUTER_BOUND ( 'NONE', #75, .T. ) ;
#168 = DATE_AND_TIME ( #198, #114 ) ;
#169 = ORIENTED_EDGE ( 'NONE', *, *, #110, .F. ) ;
#170 = PRODUCT ( '968737', '968737', '', ( #219 ) ) ;
#171 = DIRECTION ( 'NONE',  ( 0.0000000000000000000, 1.000000000000000000, 0.0000000000000000000 ) ) ;
#172 = PERSON_AND_ORGANIZATION ( #17, #189 ) ;
#173 = DIRECTION ( 'NONE',  ( 3.599869054929416288E-31, 1.000000000000000000, 1.013273058397668674E-16 ) ) ;
#174 = CIRCLE ( 'NONE', #255, 1.499999999999996669 ) ;
#175 = APPROVAL_PERSON_ORGANIZATION ( #113, #122, #212 ) ;
#176 = DIRECTION ( 'NONE',  ( -3.599869054929416288E-31, -1.000000000000000000, -1.013273058397668674E-16 ) ) ;
#177 = APPROVAL_DATE_TIME ( #168, #46 ) ;
#178 = ADVANCED_FACE ( 'NONE', ( #106 ), #103, .F. ) ;
#179 = PLANE ( 'NONE',  #301 ) ;
#180 = DIRECTION ( 'NONE',  ( -3.491481338843133355E-15, 1.224646799147353207E-16, -1.000000000000000000 ) ) ;
#181 = CONICAL_SURFACE ( 'NONE', #132, 0.9199999999999988187, 0.5235987755982937086 ) ;
#182 = LOCAL_TIME ( 15, 4, 27.00000000000000000, #13 ) ;
#183 = DIRECTION ( 'NONE',  ( 0.0000000000000000000, 1.000000000000000000, 0.0000000000000000000 ) ) ;
#184 = DIRECTION ( 'NONE',  ( 3.491481338843133355E-15, -1.224646799147353207E-16, 1.000000000000000000 ) ) ;
#185 = EDGE_CURVE ( 'NONE', #162, #162, #156, .T. ) ;
#186 = DATE_AND_TIME ( #210, #266 ) ;
#187 = CARTESIAN_POINT ( 'NONE',  ( 6.405924284287275164E-14, 0.9503844939755790033, 18.34729635533384595 ) ) ;
#188 = CARTESIAN_POINT ( 'NONE',  ( 2.883896417162832445E-14, 0.9199999999999978195, 8.259807621135337286 ) ) ;
#189 = ORGANIZATION ( 'UNSPECIFIED', 'UNSPECIFIED', '' ) ;
#190 = DIRECTION ( 'NONE',  ( 0.0000000000000000000, 1.000000000000000000, 0.0000000000000000000 ) ) ;
#191 = EDGE_CURVE ( 'NONE', #51, #51, #243, .T. ) ;
#192 = ORIENTED_EDGE ( 'NONE', *, *, #89, .F. ) ;
#193 = PERSON_AND_ORGANIZATION_ROLE ( 'design_owner' ) ;
#194 = CONICAL_SURFACE ( 'NONE', #292, 1.200000000000001732, 0.7853981633974453924 ) ;
#195 = AXIS2_PLACEMENT_3D ( 'NONE', #47, #14, #254 ) ;
#196 = CC_DESIGN_PERSON_AND_ORGANIZATION_ASSIGNMENT ( #223, #133, ( #244 ) ) ;
#197 = EDGE_LOOP ( 'NONE', ( #79 ) ) ;
#198 = CALENDAR_DATE ( 2021, 1, 12 ) ;
#199 = PERSON_AND_ORGANIZATION_ROLE ( 'creator' ) ;
#200 = EDGE_CURVE ( 'NONE', #115, #115, #26, .T. ) ;
#201 = DIRECTION ( 'NONE',  ( -3.491481338843133355E-15, 1.224646799147353207E-16, -1.000000000000000000 ) ) ;
#202 = FACE_OUTER_BOUND ( 'NONE', #272, .T. ) ;
#203 = AXIS2_PLACEMENT_3D ( 'NONE', #121, #264, #250 ) ;
#204 = PRODUCT_DEFINITION_FORMATION_WITH_SPECIFIED_SOURCE ( 'ANY', '', #170, .NOT_KNOWN. ) ;
#205 = DIRECTION ( 'NONE',  ( -3.491481338843133355E-15, 1.224646799147353207E-16, -1.000000000000000000 ) ) ;
#206 = FACE_BOUND ( 'NONE', #124, .T. ) ;
#207 = CARTESIAN_POINT ( 'NONE',  ( 1.745740669421566678E-13, -6.123233995736766085E-15, 50.00000000000000000 ) ) ;
#208 = ADVANCED_FACE ( 'NONE', ( #227 ), #179, .F. ) ;
#209 = CARTESIAN_POINT ( 'NONE',  ( 6.284666409917640040E-14, -2.168404344971008868E-15, 18.00000000000000000 ) ) ;
#210 = CALENDAR_DATE ( 2021, 1, 12 ) ;
#211 = CC_DESIGN_PERSON_AND_ORGANIZATION_ASSIGNMENT ( #141, #193, ( #170 ) ) ;
#212 = APPROVAL_ROLE ( '' ) ;
#213 = VERTEX_POINT ( 'NONE', #117 ) ;
#214 = ADVANCED_FACE ( 'NONE', ( #19, #293 ), #297, .T. ) ;
#215 = APPROVAL ( #148, 'UNSPECIFIED' ) ;
#216 = AXIS2_PLACEMENT_3D ( 'NONE', #136, #184, #295 ) ;
#217 = ORIENTED_EDGE ( 'NONE', *, *, #191, .F. ) ;
#218 = CARTESIAN_POINT ( 'NONE',  ( 2.793185071074506684E-14, -9.797174393178825657E-16, 8.000000000000000000 ) ) ;
#219 = MECHANICAL_CONTEXT ( 'NONE', #139, 'mechanical' ) ;
#220 = PRODUCT_RELATED_PRODUCT_CATEGORY ( 'detail', '', ( #170 ) ) ;
#221 = EDGE_LOOP ( 'NONE', ( #146 ) ) ;
#222 = PLANE ( 'NONE',  #231 ) ;
#223 = PERSON_AND_ORGANIZATION ( #17, #189 ) ;
#224 = ORIENTED_EDGE ( 'NONE', *, *, #110, .T. ) ;
#225 = DIRECTION ( 'NONE',  ( 0.0000000000000000000, 1.000000000000000000, 0.0000000000000000000 ) ) ;
#226 = CARTESIAN_POINT ( 'NONE',  ( 2.793185071074506684E-14, -9.797174393178825657E-16, 8.000000000000000000 ) ) ;
#227 = FACE_OUTER_BOUND ( 'NONE', #149, .T. ) ;
#228 = FACE_OUTER_BOUND ( 'NONE', #25, .T. ) ;
#229 = ADVANCED_FACE ( 'NONE', ( #228, #252 ), #194, .T. ) ;
#230 = DIRECTION ( 'NONE',  ( 4.275831445896958607E-31, 1.000000000000000000, 1.224646799147353454E-16 ) ) ;
#231 = AXIS2_PLACEMENT_3D ( 'NONE', #267, #100, #246 ) ;
#232 = CC_DESIGN_APPROVAL ( #46, ( #244 ) ) ;
#233 = VERTEX_POINT ( 'NONE', #71 ) ;
#234 = VERTEX_POINT ( 'NONE', #303 ) ;
#235 = CC_DESIGN_DATE_AND_TIME_ASSIGNMENT ( #274, #248, ( #244 ) ) ;
#236 = CALENDAR_DATE ( 2021, 1, 12 ) ;
#237 = AXIS2_PLACEMENT_3D ( 'NONE', #23, #27, #91 ) ;
#238 = VERTEX_POINT ( 'NONE', #140 ) ;
#239 = EDGE_LOOP ( 'NONE', ( #192 ) ) ;
#240 = CARTESIAN_POINT ( 'NONE',  ( 6.284666409917640040E-14, 0.9199999999999980416, 18.00000000000000000 ) ) ;
#241 = ADVANCED_FACE ( 'NONE', ( #158, #258 ), #24, .F. ) ;
#242 = ORIENTED_EDGE ( 'NONE', *, *, #31, .F. ) ;
#243 = CIRCLE ( 'NONE', #127, 0.9503844939755813348 ) ;
#244 = SECURITY_CLASSIFICATION ( '', '', #15 ) ;
#245 = ORIENTED_EDGE ( 'NONE', *, *, #31, .T. ) ;
#246 = DIRECTION ( 'NONE',  ( -4.275831445896958607E-31, -1.000000000000000000, -1.224646799147353207E-16 ) ) ;
#247 = EDGE_LOOP ( 'NONE', ( #151 ) ) ;
#248 = DATE_TIME_ROLE ( 'classification_date' ) ;
#249 = AXIS2_PLACEMENT_3D ( 'NONE', #41, #205, #294 ) ;
#250 = DIRECTION ( 'NONE',  ( -4.275831445896958607E-31, -1.000000000000000000, -1.224646799147353207E-16 ) ) ;
#251 = DIRECTION ( 'NONE',  ( 4.275831445896959482E-31, 1.000000000000000000, 1.224646799147353207E-16 ) ) ;
#252 = FACE_BOUND ( 'NONE', #6, .T. ) ;
#253 = COORDINATED_UNIVERSAL_TIME_OFFSET ( 1, 0, .AHEAD. ) ;
#254 = DIRECTION ( 'NONE',  ( 0.0000000000000000000, -1.000000000000000000, 0.0000000000000000000 ) ) ;
#255 = AXIS2_PLACEMENT_3D ( 'NONE', #3, #96, #190 ) ;
#256 = LOCAL_TIME ( 15, 4, 27.00000000000000000, #164 ) ;
#257 = DIRECTION ( 'NONE',  ( -3.491481338843133355E-15, 1.224646799147353207E-16, -1.000000000000000000 ) ) ;
#258 = FACE_OUTER_BOUND ( 'NONE', #221, .T. ) ;
#259 = CARTESIAN_POINT ( 'NONE',  ( 1.745740669421566678E-13, 1.199999999999995515, 50.00000000000000000 ) ) ;
#260 = EDGE_CURVE ( 'NONE', #55, #55, #95, .T. ) ;
#261 = APPLICATION_PROTOCOL_DEFINITION ( 'international standard', 'config_control_design', 1994, #139 ) ;
#262 = AXIS2_PLACEMENT_3D ( 'NONE', #153, #296, #278 ) ;
#263 = ADVANCED_FACE ( 'NONE', ( #12, #202 ), #161, .T. ) ;
#264 = DIRECTION ( 'NONE',  ( 3.491481338843133355E-15, -1.224646799147353207E-16, 1.000000000000000000 ) ) ;
#265 = CIRCLE ( 'NONE', #118, 0.9199999999999988187 ) ;
#266 = LOCAL_TIME ( 15, 4, 27.00000000000000000, #109 ) ;
#267 = CARTESIAN_POINT ( 'NONE',  ( 2.793185071074506684E-14, 8.023714837240924244E-33, 8.000000000000000000 ) ) ;
#268 = APPROVAL_DATE_TIME ( #35, #215 ) ;
#269 = EDGE_LOOP ( 'NONE', ( #126 ) ) ;
#270 = EDGE_LOOP ( 'NONE', ( #32 ) ) ;
#271 = PERSON_AND_ORGANIZATION ( #17, #189 ) ;
#272 = EDGE_LOOP ( 'NONE', ( #129 ) ) ;
#273 = FACE_OUTER_BOUND ( 'NONE', #289, .T. ) ;
#274 = DATE_AND_TIME ( #9, #182 ) ;
#275 = FACE_OUTER_BOUND ( 'NONE', #59, .T. ) ;
#276 = ADVANCED_FACE ( 'NONE', ( #273, #275 ), #64, .T. ) ;
#277 = CARTESIAN_POINT ( 'NONE',  ( 6.284666409917640040E-14, -2.204364238465235428E-15, 18.00000000000000000 ) ) ;
#278 = DIRECTION ( 'NONE',  ( 0.0000000000000000000, 1.000000000000000000, 0.0000000000000000000 ) ) ;
#279 = DIRECTION ( 'NONE',  ( -3.491481338843133355E-15, 1.224646799147353207E-16, -1.000000000000000000 ) ) ;
#280 = DATE_TIME_ROLE ( 'creation_date' ) ;
#281 = APPLICATION_PROTOCOL_DEFINITION ( 'international standard', 'config_control_design', 1994, #112 ) ;
#282 = ADVANCED_FACE ( 'NONE', ( #65, #155 ), #283, .T. ) ;
#283 = CYLINDRICAL_SURFACE ( 'NONE', #237, 1.069999999999999396 ) ;
#284 = PRODUCT_DEFINITION_SHAPE ( 'NONE', 'NONE',  #68 ) ;
#285 = DIRECTION ( 'NONE',  ( -3.491481338843133355E-15, 1.224646799147353207E-16, -1.000000000000000000 ) ) ;
#286 = ORIENTED_EDGE ( 'NONE', *, *, #185, .T. ) ;
#287 = APPROVAL_ROLE ( '' ) ;
#288 = EDGE_LOOP ( 'NONE', ( #224 ) ) ;
#289 = EDGE_LOOP ( 'NONE', ( #242 ) ) ;
#290 = SHAPE_DEFINITION_REPRESENTATION ( #284, #60 ) ;
#291 = DIRECTION ( 'NONE',  ( 0.0000000000000000000, 1.000000000000000000, 0.0000000000000000000 ) ) ;
#292 = AXIS2_PLACEMENT_3D ( 'NONE', #207, #87, #183 ) ;
#293 = FACE_OUTER_BOUND ( 'NONE', #288, .T. ) ;
#294 = DIRECTION ( 'NONE',  ( 4.275831445896958607E-31, 1.000000000000000000, 1.224646799147353207E-16 ) ) ;
#295 = DIRECTION ( 'NONE',  ( -4.275831445896958607E-31, -1.000000000000000000, -1.224646799147353207E-16 ) ) ;
#296 = DIRECTION ( 'NONE',  ( -3.491481338843133355E-15, 1.224646799147353207E-16, -1.000000000000000000 ) ) ;
#297 = CONICAL_SURFACE ( 'NONE', #195, 1.499999999999996669, 0.1745329251994259256 ) ;
#298 = FACE_OUTER_BOUND ( 'NONE', #10, .T. ) ;
#299 = CC_DESIGN_PERSON_AND_ORGANIZATION_ASSIGNMENT ( #128, #104, ( #204 ) ) ;
#300 =( NAMED_UNIT ( * ) SI_UNIT ( $, .STERADIAN. ) SOLID_ANGLE_UNIT ( ) );
#301 = AXIS2_PLACEMENT_3D ( 'NONE', #16, #69, #135 ) ;
#302 = CC_DESIGN_APPROVAL ( #122, ( #68 ) ) ;
#303 = CARTESIAN_POINT ( 'NONE',  ( 7.494227546279798024E-14, 1.499999999999994005, 21.46432078243022801 ) ) ;
ENDSEC;
END-ISO-10303-21;
