ISO-10303-21;
HEADER;
FILE_DESCRIPTION (( 'STEP AP203' ),
    '1' );
FILE_NAME ('968735.step',
    '2021-12-01T14:04:26',
    ( '' ),
    ( '' ),
    'SwSTEP 2.0',
    'SolidWorks 2019',
    '' );
FILE_SCHEMA (( 'CONFIG_CONTROL_DESIGN' ));
ENDSEC;

DATA;
#1 = FACE_OUTER_BOUND ( 'NONE', #150, .T. ) ;
#2 = CARTESIAN_POINT ( 'NONE',  ( 6.405924284287275164E-14, 0.9403844939755781063, 18.34729635533384595 ) ) ;
#3 = DATE_AND_TIME ( #159, #182 ) ;
#4 = APPROVAL ( #27, 'UNSPECIFIED' ) ;
#5 = APPLICATION_PROTOCOL_DEFINITION ( 'international standard', 'config_control_design', 1994, #273 ) ;
#6 = MANIFOLD_SOLID_BREP ( 'Corps-Déplacer/Copier1[2]', #39 ) ;
#7 = CC_DESIGN_PERSON_AND_ORGANIZATION_ASSIGNMENT ( #283, #293, ( #158 ) ) ;
#8 = VERTEX_POINT ( 'NONE', #187 ) ;
#9 = EDGE_LOOP ( 'NONE', ( #34 ) ) ;
#10 = AXIS2_PLACEMENT_3D ( 'NONE', #299, #250, #303 ) ;
#11 = PERSON_AND_ORGANIZATION_ROLE ( 'classification_officer' ) ;
#12 = EDGE_LOOP ( 'NONE', ( #35 ) ) ;
#13 = EDGE_LOOP ( 'NONE', ( #124 ) ) ;
#14 = COORDINATED_UNIVERSAL_TIME_OFFSET ( 1, 0, .AHEAD. ) ;
#15 = CC_DESIGN_APPROVAL ( #118, ( #205 ) ) ;
#16 = DIRECTION ( 'NONE',  ( -3.491481338843133355E-15, 1.224646799147353207E-16, -1.000000000000000000 ) ) ;
#17 = DIRECTION ( 'NONE',  ( 0.0000000000000000000, 1.000000000000000000, 0.0000000000000000000 ) ) ;
#18 = ADVANCED_FACE ( 'NONE', ( #267 ), #59, .F. ) ;
#19 = PLANE ( 'NONE',  #10 ) ;
#20 = DIRECTION ( 'NONE',  ( 4.275831445896958607E-31, 1.000000000000000000, 1.224646799147353454E-16 ) ) ;
#21 = CIRCLE ( 'NONE', #181, 0.9099999999999988098 ) ;
#22 = DIRECTION ( 'NONE',  ( -3.491481338843133355E-15, 1.224646799147353207E-16, -1.000000000000000000 ) ) ;
#23 = DIRECTION ( 'NONE',  ( 0.0000000000000000000, 1.000000000000000000, 0.0000000000000000000 ) ) ;
#24 = VERTEX_POINT ( 'NONE', #115 ) ;
#25 = APPROVAL_ROLE ( '' ) ;
#26 = ORIENTED_EDGE ( 'NONE', *, *, #186, .F. ) ;
#27 = APPROVAL_STATUS ( 'not_yet_approved' ) ;
#28 = CARTESIAN_POINT ( 'NONE',  ( 2.883896417162832445E-14, 0.9099999999999978106, 8.259807621135337286 ) ) ;
#29 = CONICAL_SURFACE ( 'NONE', #90, 1.059999999999998943, 0.5235987755982923764 ) ;
#30 = VERTEX_POINT ( 'NONE', #28 ) ;
#31 = EDGE_LOOP ( 'NONE', ( #279 ) ) ;
#32 = FACE_OUTER_BOUND ( 'NONE', #219, .T. ) ;
#33 = EDGE_CURVE ( 'NONE', #173, #173, #166, .T. ) ;
#34 = ORIENTED_EDGE ( 'NONE', *, *, #236, .F. ) ;
#35 = ORIENTED_EDGE ( 'NONE', *, *, #221, .F. ) ;
#36 = PLANE ( 'NONE',  #44 ) ;
#37 = ADVANCED_FACE ( 'NONE', ( #55, #103 ), #57, .T. ) ;
#38 = DIRECTION ( 'NONE',  ( -3.491481338843133355E-15, 1.224646799147353207E-16, -1.000000000000000000 ) ) ;
#39 = CLOSED_SHELL ( 'NONE', ( #155, #116, #125, #79 ) ) ;
#40 = CYLINDRICAL_SURFACE ( 'NONE', #113, 1.499999999999999112 ) ;
#41 = CYLINDRICAL_SURFACE ( 'NONE', #241, 1.059999999999999387 ) ;
#42 = AXIS2_PLACEMENT_3D ( 'NONE', #203, #271, #87 ) ;
#43 = DIRECTION ( 'NONE',  ( 4.275831445896958607E-31, 1.000000000000000000, 1.224646799147352961E-16 ) ) ;
#44 = AXIS2_PLACEMENT_3D ( 'NONE', #76, #163, #123 ) ;
#45 = DIRECTION ( 'NONE',  ( -3.491481338843133355E-15, 1.224646799147353207E-16, -1.000000000000000000 ) ) ;
#46 = DIRECTION ( 'NONE',  ( -4.275831445896958607E-31, -1.000000000000000000, -1.224646799147353207E-16 ) ) ;
#47 = PERSON_AND_ORGANIZATION_ROLE ( 'design_owner' ) ;
#48 = CC_DESIGN_APPROVAL ( #106, ( #171 ) ) ;
#49 = CIRCLE ( 'NONE', #217, 1.059999999999998943 ) ;
#50 = CARTESIAN_POINT ( 'NONE',  ( 2.793185071074506684E-14, 1.059999999999998943, 8.000000000000000000 ) ) ;
#51 = CARTESIAN_POINT ( 'NONE',  ( 0.0000000000000000000, 0.0000000000000000000, 0.0000000000000000000 ) ) ;
#52 = DIRECTION ( 'NONE',  ( -3.491481338843133355E-15, 1.224646799147353207E-16, -1.000000000000000000 ) ) ;
#53 = CARTESIAN_POINT ( 'NONE',  ( 6.405924284287275164E-14, -2.246895775456749140E-15, 18.34729635533384595 ) ) ;
#54 = LOCAL_TIME ( 15, 4, 26.00000000000000000, #71 ) ;
#55 = FACE_OUTER_BOUND ( 'NONE', #13, .T. ) ;
#56 = PERSON_AND_ORGANIZATION ( #257, #94 ) ;
#57 = CYLINDRICAL_SURFACE ( 'NONE', #228, 0.9099999999999995870 ) ;
#58 = EDGE_CURVE ( 'NONE', #82, #82, #301, .T. ) ;
#59 = PLANE ( 'NONE',  #208 ) ;
#60 = AXIS2_PLACEMENT_3D ( 'NONE', #170, #224, #23 ) ;
#61 = VERTEX_POINT ( 'NONE', #151 ) ;
#62 = DIRECTION ( 'NONE',  ( -3.491481338843133355E-15, 1.224646799147353207E-16, -1.000000000000000000 ) ) ;
#63 = DIRECTION ( 'NONE',  ( 3.491481338843133355E-15, -1.224646799147353207E-16, 1.000000000000000000 ) ) ;
#64 = CONICAL_SURFACE ( 'NONE', #42, 0.9099999999999988098, 0.5235987755982937086 ) ;
#65 = CARTESIAN_POINT ( 'NONE',  ( 8.728703347107829444E-16, -3.061616997868381785E-17, 0.2499999999999998890 ) ) ;
#66 = CARTESIAN_POINT ( 'NONE',  ( 2.793185071074506684E-14, -9.797174393178825657E-16, 8.000000000000000000 ) ) ;
#67 = CARTESIAN_POINT ( 'NONE',  ( 6.284666409917640040E-14, 0.9099999999999980327, 18.00000000000000000 ) ) ;
#68 = CALENDAR_DATE ( 2021, 1, 12 ) ;
#69 = EDGE_LOOP ( 'NONE', ( #26 ) ) ;
#70 = CONICAL_SURFACE ( 'NONE', #74, 1.499999999999996669, 0.1745329251994260922 ) ;
#71 = COORDINATED_UNIVERSAL_TIME_OFFSET ( 1, 0, .AHEAD. ) ;
#72 =( NAMED_UNIT ( * ) SI_UNIT ( $, .STERADIAN. ) SOLID_ANGLE_UNIT ( ) );
#73 = EDGE_LOOP ( 'NONE', ( #210 ) ) ;
#74 = AXIS2_PLACEMENT_3D ( 'NONE', #274, #129, #198 ) ;
#75 = APPROVAL_DATE_TIME ( #214, #106 ) ;
#76 = CARTESIAN_POINT ( 'NONE',  ( 2.793185071074506684E-14, 7.948726848107832184E-33, 8.000000000000000000 ) ) ;
#77 = EDGE_LOOP ( 'NONE', ( #285 ) ) ;
#78 = CARTESIAN_POINT ( 'NONE',  ( -3.915218223576261971E-31, 1.373273691061671338E-32, -1.121363067308711271E-16 ) ) ;
#79 = ADVANCED_FACE ( 'NONE', ( #223 ), #36, .T. ) ;
#80 = ORIENTED_EDGE ( 'NONE', *, *, #127, .T. ) ;
#81 = EDGE_LOOP ( 'NONE', ( #189 ) ) ;
#82 = VERTEX_POINT ( 'NONE', #268 ) ;
#83 = CONICAL_SURFACE ( 'NONE', #269, 1.200000000000001732, 0.7853981633974453924 ) ;
#84 = FACE_BOUND ( 'NONE', #81, .T. ) ;
#85 = CARTESIAN_POINT ( 'NONE',  ( 2.883896417162832445E-14, -1.011534696479630343E-15, 8.259807621135337286 ) ) ;
#86 = CARTESIAN_POINT ( 'NONE',  ( 2.793185071074506684E-14, -9.797174393178825657E-16, 8.000000000000000000 ) ) ;
#87 = DIRECTION ( 'NONE',  ( 0.0000000000000000000, 1.000000000000000000, 0.0000000000000000000 ) ) ;
#88 = PERSON_AND_ORGANIZATION_ROLE ( 'creator' ) ;
#89 = APPROVAL_DATE_TIME ( #139, #4 ) ;
#90 = AXIS2_PLACEMENT_3D ( 'NONE', #65, #109, #132 ) ;
#91 =( LENGTH_UNIT ( ) NAMED_UNIT ( * ) SI_UNIT ( .MILLI., .METRE. ) );
#92 = VERTEX_POINT ( 'NONE', #212 ) ;
#93 = EDGE_LOOP ( 'NONE', ( #80 ) ) ;
#94 = ORGANIZATION ( 'UNSPECIFIED', 'UNSPECIFIED', '' ) ;
#95 = ADVANCED_FACE ( 'NONE', ( #240, #32 ), #146, .F. ) ;
#96 = CARTESIAN_POINT ( 'NONE',  ( 6.284666409917640040E-14, -2.168404344971008868E-15, 18.00000000000000000 ) ) ;
#97 = CALENDAR_DATE ( 2021, 1, 12 ) ;
#98 = FACE_BOUND ( 'NONE', #185, .T. ) ;
#99 = ORIENTED_EDGE ( 'NONE', *, *, #58, .F. ) ;
#100 = EDGE_CURVE ( 'NONE', #61, #61, #49, .T. ) ;
#101 = AXIS2_PLACEMENT_3D ( 'NONE', #53, #244, #242 ) ;
#102 = COORDINATED_UNIVERSAL_TIME_OFFSET ( 1, 0, .AHEAD. ) ;
#103 = FACE_OUTER_BOUND ( 'NONE', #73, .T. ) ;
#104 = FACE_OUTER_BOUND ( 'NONE', #222, .T. ) ;
#105 = EDGE_CURVE ( 'NONE', #209, #209, #120, .T. ) ;
#106 = APPROVAL ( #218, 'UNSPECIFIED' ) ;
#107 = DIRECTION ( 'NONE',  ( 0.0000000000000000000, 1.000000000000000000, 0.0000000000000000000 ) ) ;
#108 = FACE_OUTER_BOUND ( 'NONE', #291, .T. ) ;
#109 = DIRECTION ( 'NONE',  ( 3.491481338843133355E-15, -1.224646799147353207E-16, 1.000000000000000000 ) ) ;
#110 = DESIGN_CONTEXT ( 'detailed design', #273, 'design' ) ;
#111 = FACE_OUTER_BOUND ( 'NONE', #220, .T. ) ;
#112 = PRODUCT_DEFINITION_SHAPE ( 'NONE', 'NONE',  #205 ) ;
#113 = AXIS2_PLACEMENT_3D ( 'NONE', #226, #22, #20 ) ;
#114 = DIRECTION ( 'NONE',  ( 1.000000000000000000, 0.0000000000000000000, 0.0000000000000000000 ) ) ;
#115 = CARTESIAN_POINT ( 'NONE',  ( 2.793185071074506684E-14, 1.059999999999998943, 8.000000000000000000 ) ) ;
#116 = ADVANCED_FACE ( 'NONE', ( #98, #193 ), #29, .T. ) ;
#117 = PERSON_AND_ORGANIZATION ( #257, #94 ) ;
#118 = APPROVAL ( #234, 'UNSPECIFIED' ) ;
#119 =( NAMED_UNIT ( * ) PLANE_ANGLE_UNIT ( ) SI_UNIT ( $, .RADIAN. ) );
#120 = CIRCLE ( 'NONE', #101, 0.9403844939755804377 ) ;
#121 = CARTESIAN_POINT ( 'NONE',  ( 8.728703347107829444E-16, -3.061616997868381785E-17, 0.2499999999999998890 ) ) ;
#122 = DATE_TIME_ROLE ( 'classification_date' ) ;
#123 = DIRECTION ( 'NONE',  ( -4.275831445896958607E-31, -1.000000000000000000, -1.224646799147353207E-16 ) ) ;
#124 = ORIENTED_EDGE ( 'NONE', *, *, #197, .F. ) ;
#125 = ADVANCED_FACE ( 'NONE', ( #104, #248 ), #41, .T. ) ;
#126 = ORIENTED_EDGE ( 'NONE', *, *, #33, .T. ) ;
#127 = EDGE_CURVE ( 'NONE', #92, #92, #195, .T. ) ;
#128 = DIRECTION ( 'NONE',  ( 0.0000000000000000000, 1.000000000000000000, 0.0000000000000000000 ) ) ;
#129 = DIRECTION ( 'NONE',  ( 3.491481338843133355E-15, -1.224646799147353207E-16, 1.000000000000000000 ) ) ;
#130 = DIRECTION ( 'NONE',  ( -3.491481338843133355E-15, 1.224646799147353207E-16, -1.000000000000000000 ) ) ;
#131 = APPROVAL_PERSON_ORGANIZATION ( #56, #106, #192 ) ;
#132 = DIRECTION ( 'NONE',  ( -3.633830083749505195E-31, -1.000000000000000000, -1.022832238193873117E-16 ) ) ;
#133 = DIRECTION ( 'NONE',  ( 0.0000000000000000000, 1.000000000000000000, 0.0000000000000000000 ) ) ;
#134 = DIRECTION ( 'NONE',  ( 0.0000000000000000000, 1.000000000000000000, 0.0000000000000000000 ) ) ;
#135 = LOCAL_TIME ( 15, 4, 26.00000000000000000, #259 ) ;
#136 = PERSON_AND_ORGANIZATION ( #257, #94 ) ;
#137 = PERSON_AND_ORGANIZATION ( #257, #94 ) ;
#138 = DATE_TIME_ROLE ( 'creation_date' ) ;
#139 = DATE_AND_TIME ( #237, #135 ) ;
#140 = CC_DESIGN_APPROVAL ( #4, ( #158 ) ) ;
#141 = EDGE_LOOP ( 'NONE', ( #99 ) ) ;
#142 = SHAPE_DEFINITION_REPRESENTATION ( #112, #202 ) ;
#143 = DIRECTION ( 'NONE',  ( 4.275831445896958607E-31, 1.000000000000000000, 1.224646799147353207E-16 ) ) ;
#144 = DIRECTION ( 'NONE',  ( 4.275831445896958607E-31, 1.000000000000000000, 1.224646799147353207E-16 ) ) ;
#145 = CIRCLE ( 'NONE', #60, 1.200000000000001732 ) ;
#146 = TOROIDAL_SURFACE ( 'NONE', #172, 2.909999999999999698, 2.000000000000000444 ) ;
#147 = SECURITY_CLASSIFICATION_LEVEL ( 'unclassified' ) ;
#148 = DIRECTION ( 'NONE',  ( 3.633830083749505195E-31, 1.000000000000000000, 1.022832238193873117E-16 ) ) ;
#149 = CARTESIAN_POINT ( 'NONE',  ( 0.0000000000000000000, 0.0000000000000000000, 0.0000000000000000000 ) ) ;
#150 = EDGE_LOOP ( 'NONE', ( #126 ) ) ;
#151 = CARTESIAN_POINT ( 'NONE',  ( 8.728703347107833388E-16, 1.059999999999998943, 0.2500000000000000000 ) ) ;
#152 = FACE_OUTER_BOUND ( 'NONE', #161, .T. ) ;
#153 = ADVANCED_FACE ( 'NONE', ( #152, #156 ), #64, .T. ) ;
#154 = CARTESIAN_POINT ( 'NONE',  ( 1.745740669421566678E-13, -6.123233995736766085E-15, 50.00000000000000000 ) ) ;
#155 = ADVANCED_FACE ( 'NONE', ( #1 ), #19, .F. ) ;
#156 = FACE_BOUND ( 'NONE', #266, .T. ) ;
#157 = PLANE ( 'NONE',  #276 ) ;
#158 = PRODUCT_DEFINITION_FORMATION_WITH_SPECIFIED_SOURCE ( 'ANY', '', #225, .NOT_KNOWN. ) ;
#159 = CALENDAR_DATE ( 2021, 1, 12 ) ;
#160 = APPROVAL_ROLE ( '' ) ;
#161 = EDGE_LOOP ( 'NONE', ( #196 ) ) ;
#162 = AXIS2_PLACEMENT_3D ( 'NONE', #275, #62, #17 ) ;
#163 = DIRECTION ( 'NONE',  ( 3.491481338843133355E-15, -1.224646799147353207E-16, 1.000000000000000000 ) ) ;
#164 = DIRECTION ( 'NONE',  ( 4.275831445896958607E-31, 1.000000000000000000, 1.224646799147353207E-16 ) ) ;
#165 = APPLICATION_CONTEXT ( 'configuration controlled 3d designs of mechanical parts and assemblies' ) ;
#166 = CIRCLE ( 'NONE', #290, 0.9156624327025946197 ) ;
#167 = DIRECTION ( 'NONE',  ( 4.275831445896957731E-31, 1.000000000000000000, 1.224646799147353207E-16 ) ) ;
#168 = ORIENTED_EDGE ( 'NONE', *, *, #197, .T. ) ;
#169 = ADVANCED_FACE ( 'NONE', ( #178, #199 ), #40, .T. ) ;
#170 = CARTESIAN_POINT ( 'NONE',  ( 1.745740669421566678E-13, -6.123233995736766085E-15, 50.00000000000000000 ) ) ;
#171 = SECURITY_CLASSIFICATION ( '', '', #147 ) ;
#172 = AXIS2_PLACEMENT_3D ( 'NONE', #96, #190, #164 ) ;
#173 = VERTEX_POINT ( 'NONE', #298 ) ;
#174 = FACE_OUTER_BOUND ( 'NONE', #262, .T. ) ;
#175 = ADVANCED_FACE ( 'NONE', ( #108, #84 ), #83, .T. ) ;
#176 = CARTESIAN_POINT ( 'NONE',  ( 6.284666409917640040E-14, -2.204364238465235428E-15, 18.00000000000000000 ) ) ;
#177 =( GEOMETRIC_REPRESENTATION_CONTEXT ( 3 ) GLOBAL_UNCERTAINTY_ASSIGNED_CONTEXT ( ( #232 ) ) GLOBAL_UNIT_ASSIGNED_CONTEXT ( ( #91, #119, #72 ) ) REPRESENTATION_CONTEXT ( 'NONE', 'WORKASPACE' ) );
#178 = FACE_OUTER_BOUND ( 'NONE', #141, .T. ) ;
#179 = APPLICATION_PROTOCOL_DEFINITION ( 'international standard', 'config_control_design', 1994, #165 ) ;
#180 = EDGE_CURVE ( 'NONE', #24, #24, #238, .T. ) ;
#181 = AXIS2_PLACEMENT_3D ( 'NONE', #85, #206, #133 ) ;
#182 = LOCAL_TIME ( 15, 4, 26.00000000000000000, #184 ) ;
#183 = PERSON_AND_ORGANIZATION_ROLE ( 'creator' ) ;
#184 = COORDINATED_UNIVERSAL_TIME_OFFSET ( 1, 0, .AHEAD. ) ;
#185 = EDGE_LOOP ( 'NONE', ( #294 ) ) ;
#186 = EDGE_CURVE ( 'NONE', #239, #239, #264, .T. ) ;
#187 = CARTESIAN_POINT ( 'NONE',  ( 1.745740669421566678E-13, 1.199999999999995515, 50.00000000000000000 ) ) ;
#188 = DATE_AND_TIME ( #243, #227 ) ;
#189 = ORIENTED_EDGE ( 'NONE', *, *, #236, .T. ) ;
#190 = DIRECTION ( 'NONE',  ( -3.491481338843133355E-15, 1.224646799147353207E-16, -1.000000000000000000 ) ) ;
#191 = CC_DESIGN_PERSON_AND_ORGANIZATION_ASSIGNMENT ( #289, #11, ( #171 ) ) ;
#192 = APPROVAL_ROLE ( '' ) ;
#193 = FACE_OUTER_BOUND ( 'NONE', #31, .T. ) ;
#194 = ORIENTED_EDGE ( 'NONE', *, *, #58, .T. ) ;
#195 = CIRCLE ( 'NONE', #162, 1.500000000000001554 ) ;
#196 = ORIENTED_EDGE ( 'NONE', *, *, #180, .F. ) ;
#197 = EDGE_CURVE ( 'NONE', #30, #30, #21, .T. ) ;
#198 = DIRECTION ( 'NONE',  ( 0.0000000000000000000, -1.000000000000000000, 0.0000000000000000000 ) ) ;
#199 = FACE_OUTER_BOUND ( 'NONE', #93, .T. ) ;
#200 = CC_DESIGN_SECURITY_CLASSIFICATION ( #171, ( #158 ) ) ;
#201 = DIRECTION ( 'NONE',  ( -3.491481338843133355E-15, 1.224646799147353207E-16, -1.000000000000000000 ) ) ;
#202 = ADVANCED_BREP_SHAPE_REPRESENTATION ( '968735', ( #204, #6, #300 ), #177 ) ;
#203 = CARTESIAN_POINT ( 'NONE',  ( 2.883896417162832445E-14, -1.011534696479630343E-15, 8.259807621135337286 ) ) ;
#204 = MANIFOLD_SOLID_BREP ( 'Corps-Déplacer/Copier1[1]', #282 ) ;
#205 = PRODUCT_DEFINITION ( 'UNKNOWN', '', #158, #110 ) ;
#206 = DIRECTION ( 'NONE',  ( -3.491481338843133355E-15, 1.224646799147353207E-16, -1.000000000000000000 ) ) ;
#207 = APPROVAL_PERSON_ORGANIZATION ( #235, #4, #160 ) ;
#208 = AXIS2_PLACEMENT_3D ( 'NONE', #216, #16, #144 ) ;
#209 = VERTEX_POINT ( 'NONE', #2 ) ;
#210 = ORIENTED_EDGE ( 'NONE', *, *, #186, .T. ) ;
#211 = AXIS2_PLACEMENT_3D ( 'NONE', #86, #302, #277 ) ;
#212 = CARTESIAN_POINT ( 'NONE',  ( 1.735266225405037467E-13, 1.499999999999995559, 49.70000000000000284 ) ) ;
#213 = PRODUCT_RELATED_PRODUCT_CATEGORY ( 'detail', '', ( #225 ) ) ;
#214 = DATE_AND_TIME ( #97, #288 ) ;
#215 = CC_DESIGN_PERSON_AND_ORGANIZATION_ASSIGNMENT ( #137, #88, ( #205 ) ) ;
#216 = CARTESIAN_POINT ( 'NONE',  ( 1.745740669421566678E-13, 8.998558695971067645E-33, 50.00000000000000000 ) ) ;
#217 = AXIS2_PLACEMENT_3D ( 'NONE', #121, #263, #148 ) ;
#218 = APPROVAL_STATUS ( 'not_yet_approved' ) ;
#219 = EDGE_LOOP ( 'NONE', ( #287 ) ) ;
#220 = EDGE_LOOP ( 'NONE', ( #245 ) ) ;
#221 = EDGE_CURVE ( 'NONE', #261, #261, #255, .T. ) ;
#222 = EDGE_LOOP ( 'NONE', ( #265 ) ) ;
#223 = FACE_OUTER_BOUND ( 'NONE', #12, .T. ) ;
#224 = DIRECTION ( 'NONE',  ( -3.491481338843133355E-15, 1.224646799147353207E-16, -1.000000000000000000 ) ) ;
#225 = PRODUCT ( '968735', '968735', '', ( #284 ) ) ;
#226 = CARTESIAN_POINT ( 'NONE',  ( 0.0000000000000000000, 0.0000000000000000000, 0.0000000000000000000 ) ) ;
#227 = LOCAL_TIME ( 15, 4, 26.00000000000000000, #102 ) ;
#228 = AXIS2_PLACEMENT_3D ( 'NONE', #149, #297, #143 ) ;
#229 = CARTESIAN_POINT ( 'NONE',  ( 0.0000000000000000000, 0.0000000000000000000, 0.0000000000000000000 ) ) ;
#230 = DIRECTION ( 'NONE',  ( -3.491481338843133355E-15, 1.224646799147353207E-16, -1.000000000000000000 ) ) ;
#231 = ADVANCED_FACE ( 'NONE', ( #249, #174 ), #70, .T. ) ;
#232 = UNCERTAINTY_MEASURE_WITH_UNIT (LENGTH_MEASURE( 1.000000000000000082E-05 ), #91, 'distance_accuracy_value', 'NONE');
#233 = APPROVAL_PERSON_ORGANIZATION ( #136, #118, #25 ) ;
#234 = APPROVAL_STATUS ( 'not_yet_approved' ) ;
#235 = PERSON_AND_ORGANIZATION ( #257, #94 ) ;
#236 = EDGE_CURVE ( 'NONE', #8, #8, #145, .T. ) ;
#237 = CALENDAR_DATE ( 2021, 1, 12 ) ;
#238 = CIRCLE ( 'NONE', #211, 1.060000000000000053 ) ;
#239 = VERTEX_POINT ( 'NONE', #67 ) ;
#240 = FACE_OUTER_BOUND ( 'NONE', #69, .T. ) ;
#241 = AXIS2_PLACEMENT_3D ( 'NONE', #229, #130, #43 ) ;
#242 = DIRECTION ( 'NONE',  ( 0.0000000000000000000, 1.000000000000000000, 0.0000000000000000000 ) ) ;
#243 = CALENDAR_DATE ( 2021, 1, 12 ) ;
#244 = DIRECTION ( 'NONE',  ( -3.491481338843133355E-15, 1.224646799147353207E-16, -1.000000000000000000 ) ) ;
#245 = ORIENTED_EDGE ( 'NONE', *, *, #180, .T. ) ;
#246 = CARTESIAN_POINT ( 'NONE',  ( 7.514028720920314890E-14, -2.635566491334976875E-15, 21.52103360062640647 ) ) ;
#247 = DIRECTION ( 'NONE',  ( 0.0000000000000000000, 1.000000000000000000, 0.0000000000000000000 ) ) ;
#248 = FACE_OUTER_BOUND ( 'NONE', #77, .T. ) ;
#249 = FACE_BOUND ( 'NONE', #260, .T. ) ;
#250 = DIRECTION ( 'NONE',  ( 3.491481338843133355E-15, -1.224646799147353207E-16, 1.000000000000000000 ) ) ;
#251 = CC_DESIGN_DATE_AND_TIME_ASSIGNMENT ( #256, #138, ( #205 ) ) ;
#252 = ADVANCED_FACE ( 'NONE', ( #111 ), #157, .F. ) ;
#253 = CARTESIAN_POINT ( 'NONE',  ( 2.793185071074506684E-14, 7.948726848107832184E-33, 8.000000000000000000 ) ) ;
#254 = PERSON_AND_ORGANIZATION ( #257, #94 ) ;
#255 = CIRCLE ( 'NONE', #295, 1.060000000000000053 ) ;
#256 = DATE_AND_TIME ( #68, #54 ) ;
#257 = PERSON ( 'UNSPECIFIED', 'UNSPECIFIED', 'UNSPECIFIED', ('UNSPECIFIED'), ('UNSPECIFIED'), ('UNSPECIFIED') ) ;
#258 = APPROVAL_DATE_TIME ( #3, #118 ) ;
#259 = COORDINATED_UNIVERSAL_TIME_OFFSET ( 1, 0, .AHEAD. ) ;
#260 = EDGE_LOOP ( 'NONE', ( #292 ) ) ;
#261 = VERTEX_POINT ( 'NONE', #50 ) ;
#262 = EDGE_LOOP ( 'NONE', ( #194 ) ) ;
#263 = DIRECTION ( 'NONE',  ( -3.491481338843133355E-15, 1.224646799147353207E-16, -1.000000000000000000 ) ) ;
#264 = CIRCLE ( 'NONE', #281, 0.9100000000000002531 ) ;
#265 = ORIENTED_EDGE ( 'NONE', *, *, #100, .F. ) ;
#266 = EDGE_LOOP ( 'NONE', ( #168 ) ) ;
#267 = FACE_OUTER_BOUND ( 'NONE', #9, .T. ) ;
#268 = CARTESIAN_POINT ( 'NONE',  ( 7.514028720920314890E-14, 1.499999999999994005, 21.52103360062640647 ) ) ;
#269 = AXIS2_PLACEMENT_3D ( 'NONE', #154, #201, #107 ) ;
#270 = AXIS2_PLACEMENT_3D ( 'NONE', #246, #38, #128 ) ;
#271 = DIRECTION ( 'NONE',  ( -3.491481338843133355E-15, 1.224646799147353207E-16, -1.000000000000000000 ) ) ;
#272 = CC_DESIGN_PERSON_AND_ORGANIZATION_ASSIGNMENT ( #254, #47, ( #225 ) ) ;
#273 = APPLICATION_CONTEXT ( 'configuration controlled 3d designs of mechanical parts and assemblies' ) ;
#274 = CARTESIAN_POINT ( 'NONE',  ( 7.514028720920314890E-14, -2.635566491334976875E-15, 21.52103360062640647 ) ) ;
#275 = CARTESIAN_POINT ( 'NONE',  ( 1.735266225405037467E-13, -6.086494591762345225E-15, 49.70000000000000284 ) ) ;
#276 = AXIS2_PLACEMENT_3D ( 'NONE', #253, #63, #46 ) ;
#277 = DIRECTION ( 'NONE',  ( 0.0000000000000000000, 1.000000000000000000, 0.0000000000000000000 ) ) ;
#278 = DIRECTION ( 'NONE',  ( 0.0000000000000000000, 0.0000000000000000000, 1.000000000000000000 ) ) ;
#279 = ORIENTED_EDGE ( 'NONE', *, *, #100, .T. ) ;
#280 = CC_DESIGN_DATE_AND_TIME_ASSIGNMENT ( #188, #122, ( #171 ) ) ;
#281 = AXIS2_PLACEMENT_3D ( 'NONE', #176, #45, #134 ) ;
#282 = CLOSED_SHELL ( 'NONE', ( #252, #153, #37, #95, #231, #169, #175, #18 ) ) ;
#283 = PERSON_AND_ORGANIZATION ( #257, #94 ) ;
#284 = MECHANICAL_CONTEXT ( 'NONE', #165, 'mechanical' ) ;
#285 = ORIENTED_EDGE ( 'NONE', *, *, #221, .T. ) ;
#286 = CC_DESIGN_PERSON_AND_ORGANIZATION_ASSIGNMENT ( #117, #183, ( #158 ) ) ;
#287 = ORIENTED_EDGE ( 'NONE', *, *, #105, .T. ) ;
#288 = LOCAL_TIME ( 15, 4, 26.00000000000000000, #14 ) ;
#289 = PERSON_AND_ORGANIZATION ( #257, #94 ) ;
#290 = AXIS2_PLACEMENT_3D ( 'NONE', #78, #52, #167 ) ;
#291 = EDGE_LOOP ( 'NONE', ( #296 ) ) ;
#292 = ORIENTED_EDGE ( 'NONE', *, *, #105, .F. ) ;
#293 = PERSON_AND_ORGANIZATION_ROLE ( 'design_supplier' ) ;
#294 = ORIENTED_EDGE ( 'NONE', *, *, #33, .F. ) ;
#295 = AXIS2_PLACEMENT_3D ( 'NONE', #66, #230, #247 ) ;
#296 = ORIENTED_EDGE ( 'NONE', *, *, #127, .F. ) ;
#297 = DIRECTION ( 'NONE',  ( -3.491481338843133355E-15, 1.224646799147353207E-16, -1.000000000000000000 ) ) ;
#298 = CARTESIAN_POINT ( 'NONE',  ( -8.552847072295026068E-47, 0.9156624327025946197, 0.0000000000000000000 ) ) ;
#299 = CARTESIAN_POINT ( 'NONE',  ( -1.957609111788130985E-31, 6.866368455308356689E-33, -5.606815336543556356E-17 ) ) ;
#300 = AXIS2_PLACEMENT_3D ( 'NONE', #51, #278, #114 ) ;
#301 = CIRCLE ( 'NONE', #270, 1.499999999999996669 ) ;
#302 = DIRECTION ( 'NONE',  ( -3.491481338843133355E-15, 1.224646799147353207E-16, -1.000000000000000000 ) ) ;
#303 = DIRECTION ( 'NONE',  ( -4.275831445896958607E-31, -1.000000000000000000, -1.224646799147353207E-16 ) ) ;
ENDSEC;
END-ISO-10303-21;
