ISO-10303-21;
HEADER;
FILE_DESCRIPTION (( 'STEP AP203' ),
    '1' );
FILE_NAME ('968685.step',
    '2021-11-16T09:15:48',
    ( '' ),
    ( '' ),
    'SwSTEP 2.0',
    'SolidWorks 2019',
    '' );
FILE_SCHEMA (( 'CONFIG_CONTROL_DESIGN' ));
ENDSEC;

DATA;
#1 = CALENDAR_DATE ( 2021, 16, 11 ) ;
#2 = ADVANCED_FACE ( 'NONE', ( #159 ), #6, .F. ) ;
#3 = PERSON_AND_ORGANIZATION ( #154, #51 ) ;
#4 = AXIS2_PLACEMENT_3D ( 'NONE', #91, #194, #147 ) ;
#5 = DATE_TIME_ROLE ( 'classification_date' ) ;
#6 = PLANE ( 'NONE',  #132 ) ;
#7 = EDGE_CURVE ( 'NONE', #43, #43, #33, .T. ) ;
#8 = PLANE ( 'NONE',  #4 ) ;
#9 = CARTESIAN_POINT ( 'NONE',  ( 3.631140592396858185E-13, -1.273632671113247276E-14, 103.9999999999999858 ) ) ;
#10 = PLANE ( 'NONE',  #192 ) ;
#11 = CARTESIAN_POINT ( 'NONE',  ( 3.596225779008426472E-13, -1.261386203121773761E-14, 102.9999999999999858 ) ) ;
#12 = EDGE_CURVE ( 'NONE', #112, #112, #87, .T. ) ;
#13 = AXIS2_PLACEMENT_3D ( 'NONE', #131, #60, #42 ) ;
#14 = DATE_TIME_ROLE ( 'creation_date' ) ;
#15 = MANIFOLD_SOLID_BREP ( 'Corps-Déplacer/Copier1[1]', #208 ) ;
#16 = SECURITY_CLASSIFICATION_LEVEL ( 'unclassified' ) ;
#17 = COORDINATED_UNIVERSAL_TIME_OFFSET ( 1, 0, .AHEAD. ) ;
#18 = CC_DESIGN_DATE_AND_TIME_ASSIGNMENT ( #157, #5, ( #134 ) ) ;
#19 = MANIFOLD_SOLID_BREP ( 'Corps-Déplacer/Copier1[2]', #54 ) ;
#20 = COORDINATED_UNIVERSAL_TIME_OFFSET ( 1, 0, .AHEAD. ) ;
#21 = PERSON_AND_ORGANIZATION ( #154, #51 ) ;
#22 = CONICAL_SURFACE ( 'NONE', #189, 10.00000000000000000, 0.1396263401595435327 ) ;
#23 = DIRECTION ( 'NONE',  ( -3.491481338843133355E-15, 1.224646799147353454E-16, -1.000000000000000000 ) ) ;
#24 = ORIENTED_EDGE ( 'NONE', *, *, #191, .F. ) ;
#25 = PLANE ( 'NONE',  #217 ) ;
#26 = DIRECTION ( 'NONE',  ( 3.491481338843133355E-15, -1.200603201359864205E-16, 1.000000000000000000 ) ) ;
#27 = CARTESIAN_POINT ( 'NONE',  ( 1.326762908760390423E-13, 7.498798913309283660E-32, 38.00000000000000000 ) ) ;
#28 = CYLINDRICAL_SURFACE ( 'NONE', #68, 10.00000000000000000 ) ;
#29 = CARTESIAN_POINT ( 'NONE',  ( 1.326762908760390423E-13, 9.999999999999994671, 38.00000000000000000 ) ) ;
#30 = CARTESIAN_POINT ( 'NONE',  ( 1.326762908760390423E-13, -4.653657836759942730E-15, 38.00000000000000000 ) ) ;
#31 = ADVANCED_FACE ( 'NONE', ( #44, #63 ), #28, .T. ) ;
#32 = DIRECTION ( 'NONE',  ( -3.491481338843133355E-15, 1.224646799147353454E-16, -1.000000000000000000 ) ) ;
#33 = CIRCLE ( 'NONE', #221, 10.00000000000000000 ) ;
#34 = DIRECTION ( 'NONE',  ( 1.000000000000000000, 0.0000000000000000000, 0.0000000000000000000 ) ) ;
#35 = CARTESIAN_POINT ( 'NONE',  ( 3.596225779008426472E-13, 9.999999999999973355, 102.9999999999999858 ) ) ;
#36 = CC_DESIGN_PERSON_AND_ORGANIZATION_ASSIGNMENT ( #67, #169, ( #141 ) ) ;
#37 = AXIS2_PLACEMENT_3D ( 'NONE', #9, #205, #93 ) ;
#38 = CC_DESIGN_SECURITY_CLASSIFICATION ( #134, ( #141 ) ) ;
#39 = DATE_AND_TIME ( #103, #210 ) ;
#40 = PRODUCT_RELATED_PRODUCT_CATEGORY ( 'detail', '', ( #56 ) ) ;
#41 = CONICAL_SURFACE ( 'NONE', #13, 9.999999999999985789, 0.7853981633974415066 ) ;
#42 = DIRECTION ( 'NONE',  ( 0.0000000000000000000, 1.000000000000000000, 0.0000000000000000000 ) ) ;
#43 = VERTEX_POINT ( 'NONE', #47 ) ;
#44 = FACE_OUTER_BOUND ( 'NONE', #180, .T. ) ;
#45 = AXIS2_PLACEMENT_3D ( 'NONE', #30, #99, #166 ) ;
#46 = LOCAL_TIME ( 10, 15, 48.00000000000000000, #82 ) ;
#47 = CARTESIAN_POINT ( 'NONE',  ( 6.982962677686182894E-16, -10.00000000000000000, 0.1999999999999976241 ) ) ;
#48 = EDGE_CURVE ( 'NONE', #184, #184, #57, .T. ) ;
#49 = DIRECTION ( 'NONE',  ( -3.491481338843133355E-15, 1.224646799147353454E-16, -1.000000000000000000 ) ) ;
#50 = CARTESIAN_POINT ( 'NONE',  ( -4.180101056295987589E-30, 1.437396400881119490E-31, -1.197228525838554607E-15 ) ) ;
#51 = ORGANIZATION ( 'UNSPECIFIED', 'UNSPECIFIED', '' ) ;
#52 = APPROVAL ( #121, 'UNSPECIFIED' ) ;
#53 =( NAMED_UNIT ( * ) PLANE_ANGLE_UNIT ( ) SI_UNIT ( $, .RADIAN. ) );
#54 = CLOSED_SHELL ( 'NONE', ( #31, #105, #195, #178 ) ) ;
#55 = APPLICATION_PROTOCOL_DEFINITION ( 'international standard', 'config_control_design', 1994, #78 ) ;
#56 = PRODUCT ( '968685', '968685', '', ( #220 ) ) ;
#57 = CIRCLE ( 'NONE', #45, 10.00000000000000000 ) ;
#58 = APPROVAL_ROLE ( '' ) ;
#59 =( GEOMETRIC_REPRESENTATION_CONTEXT ( 3 ) GLOBAL_UNCERTAINTY_ASSIGNED_CONTEXT ( ( #123 ) ) GLOBAL_UNIT_ASSIGNED_CONTEXT ( ( #101, #53, #80 ) ) REPRESENTATION_CONTEXT ( 'NONE', 'WORKASPACE' ) );
#60 = DIRECTION ( 'NONE',  ( -3.491481338843133355E-15, 1.224646799147353454E-16, -1.000000000000000000 ) ) ;
#61 = ORIENTED_EDGE ( 'NONE', *, *, #12, .F. ) ;
#62 = EDGE_CURVE ( 'NONE', #135, #135, #168, .T. ) ;
#63 = FACE_OUTER_BOUND ( 'NONE', #197, .T. ) ;
#64 = AXIS2_PLACEMENT_3D ( 'NONE', #175, #213, #216 ) ;
#65 = APPLICATION_PROTOCOL_DEFINITION ( 'international standard', 'config_control_design', 1994, #165 ) ;
#66 = PERSON_AND_ORGANIZATION ( #154, #51 ) ;
#67 = PERSON_AND_ORGANIZATION ( #154, #51 ) ;
#68 = AXIS2_PLACEMENT_3D ( 'NONE', #98, #49, #185 ) ;
#69 = APPROVAL_STATUS ( 'not_yet_approved' ) ;
#70 = CC_DESIGN_PERSON_AND_ORGANIZATION_ASSIGNMENT ( #144, #170, ( #201 ) ) ;
#71 = CALENDAR_DATE ( 2021, 16, 11 ) ;
#72 = CALENDAR_DATE ( 2021, 16, 11 ) ;
#73 = APPROVAL ( #69, 'UNSPECIFIED' ) ;
#74 = CARTESIAN_POINT ( 'NONE',  ( 6.982962677686225295E-16, -2.401206402719714234E-17, 0.1999999999999988176 ) ) ;
#75 = ORIENTED_EDGE ( 'NONE', *, *, #12, .T. ) ;
#76 = FACE_OUTER_BOUND ( 'NONE', #130, .T. ) ;
#77 = ORIENTED_EDGE ( 'NONE', *, *, #7, .F. ) ;
#78 = APPLICATION_CONTEXT ( 'configuration controlled 3d designs of mechanical parts and assemblies' ) ;
#79 = AXIS2_PLACEMENT_3D ( 'NONE', #50, #100, #206 ) ;
#80 =( NAMED_UNIT ( * ) SI_UNIT ( $, .STERADIAN. ) SOLID_ANGLE_UNIT ( ) );
#81 = APPROVAL_PERSON_ORGANIZATION ( #21, #73, #58 ) ;
#82 = COORDINATED_UNIVERSAL_TIME_OFFSET ( 1, 0, .AHEAD. ) ;
#83 = PERSON_AND_ORGANIZATION ( #154, #51 ) ;
#84 = PERSON_AND_ORGANIZATION_ROLE ( 'classification_officer' ) ;
#85 = CC_DESIGN_DATE_AND_TIME_ASSIGNMENT ( #124, #14, ( #201 ) ) ;
#86 = CALENDAR_DATE ( 2021, 16, 11 ) ;
#87 = CIRCLE ( 'NONE', #37, 9.000000000000000000 ) ;
#88 = EDGE_CURVE ( 'NONE', #118, #118, #125, .T. ) ;
#89 = FACE_OUTER_BOUND ( 'NONE', #115, .T. ) ;
#90 = EDGE_LOOP ( 'NONE', ( #160 ) ) ;
#91 = CARTESIAN_POINT ( 'NONE',  ( -2.137915722948479478E-30, 7.498798913309291323E-32, -6.123233995736767268E-16 ) ) ;
#92 = SHAPE_DEFINITION_REPRESENTATION ( #172, #108 ) ;
#93 = DIRECTION ( 'NONE',  ( 0.0000000000000000000, 1.000000000000000000, 0.0000000000000000000 ) ) ;
#94 = DIRECTION ( 'NONE',  ( -4.275831445896959482E-31, -1.000000000000000000, -1.224646799147353454E-16 ) ) ;
#95 = DIRECTION ( 'NONE',  ( -4.237045877651918877E-31, -1.000000000000000000, -1.192622389734054877E-16 ) ) ;
#96 = LOCAL_TIME ( 10, 15, 48.00000000000000000, #17 ) ;
#97 = CARTESIAN_POINT ( 'NONE',  ( 0.0000000000000000000, 0.0000000000000000000, 0.0000000000000000000 ) ) ;
#98 = CARTESIAN_POINT ( 'NONE',  ( 0.0000000000000000000, 0.0000000000000000000, 0.0000000000000000000 ) ) ;
#99 = DIRECTION ( 'NONE',  ( -3.491481338843133355E-15, 1.224646799147353454E-16, -1.000000000000000000 ) ) ;
#100 = DIRECTION ( 'NONE',  ( 3.491481338843133355E-15, -1.200603201359864205E-16, 1.000000000000000000 ) ) ;
#101 =( LENGTH_UNIT ( ) NAMED_UNIT ( * ) SI_UNIT ( .MILLI., .METRE. ) );
#102 = PERSON_AND_ORGANIZATION_ROLE ( 'design_owner' ) ;
#103 = CALENDAR_DATE ( 2021, 16, 11 ) ;
#104 = APPROVAL_ROLE ( '' ) ;
#105 = ADVANCED_FACE ( 'NONE', ( #119 ), #10, .T. ) ;
#106 = LOCAL_TIME ( 10, 15, 48.00000000000000000, #174 ) ;
#107 = PERSON_AND_ORGANIZATION ( #154, #51 ) ;
#108 = ADVANCED_BREP_SHAPE_REPRESENTATION ( '968685', ( #15, #19, #148 ), #59 ) ;
#109 = APPROVAL_DATE_TIME ( #39, #142 ) ;
#110 = ORIENTED_EDGE ( 'NONE', *, *, #88, .T. ) ;
#111 = DIRECTION ( 'NONE',  ( 3.491481338843133355E-15, -1.224646799147353454E-16, 1.000000000000000000 ) ) ;
#112 = VERTEX_POINT ( 'NONE', #116 ) ;
#113 = EDGE_LOOP ( 'NONE', ( #151 ) ) ;
#114 = ADVANCED_FACE ( 'NONE', ( #202, #76 ), #41, .T. ) ;
#115 = EDGE_LOOP ( 'NONE', ( #61 ) ) ;
#116 = CARTESIAN_POINT ( 'NONE',  ( 3.631140592396858185E-13, 8.999999999999987566, 103.9999999999999858 ) ) ;
#117 = ORIENTED_EDGE ( 'NONE', *, *, #48, .F. ) ;
#118 = VERTEX_POINT ( 'NONE', #219 ) ;
#119 = FACE_OUTER_BOUND ( 'NONE', #183, .T. ) ;
#120 = CC_DESIGN_PERSON_AND_ORGANIZATION_ASSIGNMENT ( #143, #193, ( #141 ) ) ;
#121 = APPROVAL_STATUS ( 'not_yet_approved' ) ;
#122 = CC_DESIGN_APPROVAL ( #73, ( #134 ) ) ;
#123 = UNCERTAINTY_MEASURE_WITH_UNIT (LENGTH_MEASURE( 1.000000000000000082E-05 ), #101, 'distance_accuracy_value', 'NONE');
#124 = DATE_AND_TIME ( #1, #96 ) ;
#125 = CIRCLE ( 'NONE', #79, 9.971891833059522980 ) ;
#126 = FACE_OUTER_BOUND ( 'NONE', #127, .T. ) ;
#127 = EDGE_LOOP ( 'NONE', ( #215 ) ) ;
#128 = CARTESIAN_POINT ( 'NONE',  ( 6.982962677686225295E-16, -2.401206402719714234E-17, 0.1999999999999988176 ) ) ;
#129 = DIRECTION ( 'NONE',  ( 4.275831445896959482E-31, 1.000000000000000000, 1.224646799147353454E-16 ) ) ;
#130 = EDGE_LOOP ( 'NONE', ( #152 ) ) ;
#131 = CARTESIAN_POINT ( 'NONE',  ( 3.596225779008426472E-13, -1.261386203121773761E-14, 102.9999999999999858 ) ) ;
#132 = AXIS2_PLACEMENT_3D ( 'NONE', #218, #111, #179 ) ;
#133 = EDGE_LOOP ( 'NONE', ( #117 ) ) ;
#134 = SECURITY_CLASSIFICATION ( '', '', #16 ) ;
#135 = VERTEX_POINT ( 'NONE', #35 ) ;
#136 = ADVANCED_FACE ( 'NONE', ( #89 ), #25, .F. ) ;
#137 = EDGE_LOOP ( 'NONE', ( #77 ) ) ;
#138 = CC_DESIGN_PERSON_AND_ORGANIZATION_ASSIGNMENT ( #83, #84, ( #134 ) ) ;
#139 = DESIGN_CONTEXT ( 'detailed design', #78, 'design' ) ;
#140 = APPROVAL_DATE_TIME ( #153, #52 ) ;
#141 = PRODUCT_DEFINITION_FORMATION_WITH_SPECIFIED_SOURCE ( 'ANY', '', #56, .NOT_KNOWN. ) ;
#142 = APPROVAL ( #223, 'UNSPECIFIED' ) ;
#143 = PERSON_AND_ORGANIZATION ( #154, #51 ) ;
#144 = PERSON_AND_ORGANIZATION ( #154, #51 ) ;
#145 = DIRECTION ( 'NONE',  ( 3.491481338843133355E-15, -1.224646799147353454E-16, 1.000000000000000000 ) ) ;
#146 = FACE_OUTER_BOUND ( 'NONE', #90, .T. ) ;
#147 = DIRECTION ( 'NONE',  ( 4.275831445896959482E-31, 1.000000000000000000, 1.224646799147353454E-16 ) ) ;
#148 = AXIS2_PLACEMENT_3D ( 'NONE', #190, #188, #34 ) ;
#149 = CYLINDRICAL_SURFACE ( 'NONE', #158, 9.999999999999992895 ) ;
#150 = DIRECTION ( 'NONE',  ( -3.491481338843133355E-15, 1.224646799147353454E-16, -1.000000000000000000 ) ) ;
#151 = ORIENTED_EDGE ( 'NONE', *, *, #48, .T. ) ;
#152 = ORIENTED_EDGE ( 'NONE', *, *, #62, .F. ) ;
#153 = DATE_AND_TIME ( #86, #46 ) ;
#154 = PERSON ( 'UNSPECIFIED', 'UNSPECIFIED', 'UNSPECIFIED', ('UNSPECIFIED'), ('UNSPECIFIED'), ('UNSPECIFIED') ) ;
#155 = CC_DESIGN_PERSON_AND_ORGANIZATION_ASSIGNMENT ( #66, #102, ( #56 ) ) ;
#156 = CIRCLE ( 'NONE', #64, 10.00000000000000000 ) ;
#157 = DATE_AND_TIME ( #72, #106 ) ;
#158 = AXIS2_PLACEMENT_3D ( 'NONE', #97, #150, #162 ) ;
#159 = FACE_OUTER_BOUND ( 'NONE', #113, .T. ) ;
#160 = ORIENTED_EDGE ( 'NONE', *, *, #62, .T. ) ;
#161 = CC_DESIGN_APPROVAL ( #142, ( #201 ) ) ;
#162 = DIRECTION ( 'NONE',  ( 4.275831445896959482E-31, 1.000000000000000000, 1.224646799147353454E-16 ) ) ;
#163 = APPROVAL_DATE_TIME ( #199, #73 ) ;
#164 = EDGE_LOOP ( 'NONE', ( #75 ) ) ;
#165 = APPLICATION_CONTEXT ( 'configuration controlled 3d designs of mechanical parts and assemblies' ) ;
#166 = DIRECTION ( 'NONE',  ( 0.0000000000000000000, 1.000000000000000000, 0.0000000000000000000 ) ) ;
#167 = ADVANCED_FACE ( 'NONE', ( #146, #212 ), #149, .T. ) ;
#168 = CIRCLE ( 'NONE', #181, 9.999999999999985789 ) ;
#169 = PERSON_AND_ORGANIZATION_ROLE ( 'design_supplier' ) ;
#170 = PERSON_AND_ORGANIZATION_ROLE ( 'creator' ) ;
#171 = APPROVAL_PERSON_ORGANIZATION ( #107, #142, #104 ) ;
#172 = PRODUCT_DEFINITION_SHAPE ( 'NONE', 'NONE',  #201 ) ;
#173 = APPROVAL_ROLE ( '' ) ;
#174 = COORDINATED_UNIVERSAL_TIME_OFFSET ( 1, 0, .AHEAD. ) ;
#175 = CARTESIAN_POINT ( 'NONE',  ( 1.326762908760390423E-13, -4.653657836759942730E-15, 38.00000000000000000 ) ) ;
#176 = APPROVAL_PERSON_ORGANIZATION ( #3, #52, #173 ) ;
#177 = ORIENTED_EDGE ( 'NONE', *, *, #7, .T. ) ;
#178 = ADVANCED_FACE ( 'NONE', ( #126 ), #8, .T. ) ;
#179 = DIRECTION ( 'NONE',  ( -4.275831445896959482E-31, -1.000000000000000000, -1.224646799147353454E-16 ) ) ;
#180 = EDGE_LOOP ( 'NONE', ( #200 ) ) ;
#181 = AXIS2_PLACEMENT_3D ( 'NONE', #11, #32, #187 ) ;
#182 = LOCAL_TIME ( 10, 15, 48.00000000000000000, #20 ) ;
#183 = EDGE_LOOP ( 'NONE', ( #24 ) ) ;
#184 = VERTEX_POINT ( 'NONE', #29 ) ;
#185 = DIRECTION ( 'NONE',  ( 4.275831445896958607E-31, 1.000000000000000000, 1.224646799147353454E-16 ) ) ;
#186 = VERTEX_POINT ( 'NONE', #207 ) ;
#187 = DIRECTION ( 'NONE',  ( 0.0000000000000000000, 1.000000000000000000, 0.0000000000000000000 ) ) ;
#188 = DIRECTION ( 'NONE',  ( 0.0000000000000000000, 0.0000000000000000000, 1.000000000000000000 ) ) ;
#189 = AXIS2_PLACEMENT_3D ( 'NONE', #128, #204, #214 ) ;
#190 = CARTESIAN_POINT ( 'NONE',  ( 0.0000000000000000000, 0.0000000000000000000, 0.0000000000000000000 ) ) ;
#191 = EDGE_CURVE ( 'NONE', #186, #186, #156, .T. ) ;
#192 = AXIS2_PLACEMENT_3D ( 'NONE', #27, #145, #94 ) ;
#193 = PERSON_AND_ORGANIZATION_ROLE ( 'creator' ) ;
#194 = DIRECTION ( 'NONE',  ( -3.491481338843133355E-15, 1.224646799147353454E-16, -1.000000000000000000 ) ) ;
#195 = ADVANCED_FACE ( 'NONE', ( #196, #198 ), #22, .T. ) ;
#196 = FACE_BOUND ( 'NONE', #203, .T. ) ;
#197 = EDGE_LOOP ( 'NONE', ( #177 ) ) ;
#198 = FACE_OUTER_BOUND ( 'NONE', #137, .T. ) ;
#199 = DATE_AND_TIME ( #71, #182 ) ;
#200 = ORIENTED_EDGE ( 'NONE', *, *, #191, .T. ) ;
#201 = PRODUCT_DEFINITION ( 'UNKNOWN', '', #141, #139 ) ;
#202 = FACE_BOUND ( 'NONE', #164, .T. ) ;
#203 = EDGE_LOOP ( 'NONE', ( #110 ) ) ;
#204 = DIRECTION ( 'NONE',  ( 3.491481338843133355E-15, -1.200603201359864205E-16, 1.000000000000000000 ) ) ;
#205 = DIRECTION ( 'NONE',  ( -3.491481338843133355E-15, 1.224646799147353454E-16, -1.000000000000000000 ) ) ;
#206 = DIRECTION ( 'NONE',  ( -4.191883672903289796E-31, -1.000000000000000000, -1.200603201359863958E-16 ) ) ;
#207 = CARTESIAN_POINT ( 'NONE',  ( 1.326762908760390423E-13, 9.999999999999994671, 38.00000000000000000 ) ) ;
#208 = CLOSED_SHELL ( 'NONE', ( #2, #167, #114, #136 ) ) ;
#209 = COORDINATED_UNIVERSAL_TIME_OFFSET ( 1, 0, .AHEAD. ) ;
#210 = LOCAL_TIME ( 10, 15, 48.00000000000000000, #209 ) ;
#211 = CARTESIAN_POINT ( 'NONE',  ( 3.631140592396858185E-13, 1.767028032028397633E-30, 103.9999999999999858 ) ) ;
#212 = FACE_OUTER_BOUND ( 'NONE', #133, .T. ) ;
#213 = DIRECTION ( 'NONE',  ( -3.491481338843133355E-15, 1.224646799147353454E-16, -1.000000000000000000 ) ) ;
#214 = DIRECTION ( 'NONE',  ( -4.237045877651918877E-31, -1.000000000000000000, -1.192622389734054877E-16 ) ) ;
#215 = ORIENTED_EDGE ( 'NONE', *, *, #88, .F. ) ;
#216 = DIRECTION ( 'NONE',  ( 0.0000000000000000000, 1.000000000000000000, 0.0000000000000000000 ) ) ;
#217 = AXIS2_PLACEMENT_3D ( 'NONE', #211, #23, #129 ) ;
#218 = CARTESIAN_POINT ( 'NONE',  ( 1.326762908760390423E-13, 7.498798913309283660E-32, 38.00000000000000000 ) ) ;
#219 = CARTESIAN_POINT ( 'NONE',  ( -8.360202112591975178E-30, -9.971891833059522980, -2.394457051677109213E-15 ) ) ;
#220 = MECHANICAL_CONTEXT ( 'NONE', #165, 'mechanical' ) ;
#221 = AXIS2_PLACEMENT_3D ( 'NONE', #74, #26, #95 ) ;
#222 = CC_DESIGN_APPROVAL ( #52, ( #141 ) ) ;
#223 = APPROVAL_STATUS ( 'not_yet_approved' ) ;
ENDSEC;
END-ISO-10303-21;
