ISO-10303-21;
HEADER;
FILE_DESCRIPTION (( 'STEP AP203' ),
    '1' );
FILE_NAME ('968684.step',
    '2021-11-16T09:15:47',
    ( '' ),
    ( '' ),
    'SwSTEP 2.0',
    'SolidWorks 2019',
    '' );
FILE_SCHEMA (( 'CONFIG_CONTROL_DESIGN' ));
ENDSEC;

DATA;
#1 =( GEOMETRIC_REPRESENTATION_CONTEXT ( 3 ) GLOBAL_UNCERTAINTY_ASSIGNED_CONTEXT ( ( #34 ) ) GLOBAL_UNIT_ASSIGNED_CONTEXT ( ( #35, #33, #173 ) ) REPRESENTATION_CONTEXT ( 'NONE', 'WORKASPACE' ) );
#2 = EDGE_CURVE ( 'NONE', #3, #3, #53, .T. ) ;
#3 = VERTEX_POINT ( 'NONE', #37 ) ;
#4 = ADVANCED_FACE ( 'NONE', ( #146, #54 ), #198, .T. ) ;
#5 = APPLICATION_PROTOCOL_DEFINITION ( 'international standard', 'config_control_design', 1994, #193 ) ;
#6 = DIRECTION ( 'NONE',  ( 0.0000000000000000000, 1.000000000000000000, 0.0000000000000000000 ) ) ;
#7 = CARTESIAN_POINT ( 'NONE',  ( 1.117274028429802674E-13, 7.999999999999996447, 32.00000000000000000 ) ) ;
#8 = LOCAL_TIME ( 10, 15, 47.00000000000000000, #115 ) ;
#9 = FACE_OUTER_BOUND ( 'NONE', #130, .T. ) ;
#10 = CARTESIAN_POINT ( 'NONE',  ( 0.0000000000000000000, 0.0000000000000000000, 0.0000000000000000000 ) ) ;
#11 = CARTESIAN_POINT ( 'NONE',  ( 3.212162831735682182E-13, 5.624099184981952345E-32, 92.00000000000000000 ) ) ;
#12 = AXIS2_PLACEMENT_3D ( 'NONE', #11, #78, #112 ) ;
#13 = PERSON_AND_ORGANIZATION ( #201, #99 ) ;
#14 = PERSON_AND_ORGANIZATION_ROLE ( 'creator' ) ;
#15 = ADVANCED_FACE ( 'NONE', ( #108 ), #182, .F. ) ;
#16 = MANIFOLD_SOLID_BREP ( 'Corps-Déplacer/Copier1[1]', #214 ) ;
#17 = EDGE_CURVE ( 'NONE', #57, #57, #122, .T. ) ;
#18 = CARTESIAN_POINT ( 'NONE',  ( 0.0000000000000000000, 0.0000000000000000000, 0.0000000000000000000 ) ) ;
#19 = AXIS2_PLACEMENT_3D ( 'NONE', #123, #144, #215 ) ;
#20 = PRODUCT_DEFINITION_SHAPE ( 'NONE', 'NONE',  #117 ) ;
#21 = ORIENTED_EDGE ( 'NONE', *, *, #65, .F. ) ;
#22 = MECHANICAL_CONTEXT ( 'NONE', #193, 'mechanical' ) ;
#23 = EDGE_LOOP ( 'NONE', ( #197 ) ) ;
#24 = VERTEX_POINT ( 'NONE', #140 ) ;
#25 = ADVANCED_FACE ( 'NONE', ( #26 ), #202, .T. ) ;
#26 = FACE_OUTER_BOUND ( 'NONE', #157, .T. ) ;
#27 = DIRECTION ( 'NONE',  ( -3.491481338843133355E-15, 1.224646799147353207E-16, -1.000000000000000000 ) ) ;
#28 = APPROVAL_STATUS ( 'not_yet_approved' ) ;
#29 = DIRECTION ( 'NONE',  ( -3.491481338843133355E-15, 1.224646799147353207E-16, -1.000000000000000000 ) ) ;
#30 = APPROVAL_DATE_TIME ( #186, #80 ) ;
#31 = ADVANCED_FACE ( 'NONE', ( #93, #40 ), #142, .T. ) ;
#32 = PERSON_AND_ORGANIZATION ( #201, #99 ) ;
#33 =( NAMED_UNIT ( * ) PLANE_ANGLE_UNIT ( ) SI_UNIT ( $, .RADIAN. ) );
#34 = UNCERTAINTY_MEASURE_WITH_UNIT (LENGTH_MEASURE( 1.000000000000000082E-05 ), #35, 'distance_accuracy_value', 'NONE');
#35 =( LENGTH_UNIT ( ) NAMED_UNIT ( * ) SI_UNIT ( .MILLI., .METRE. ) );
#36 = APPROVAL ( #28, 'UNSPECIFIED' ) ;
#37 = CARTESIAN_POINT ( 'NONE',  ( 3.212162831735682182E-13, 7.499999999999992895, 92.00000000000000000 ) ) ;
#38 = ADVANCED_FACE ( 'NONE', ( #160 ), #166, .F. ) ;
#39 = DIRECTION ( 'NONE',  ( 4.275831445896958607E-31, 1.000000000000000000, 1.224646799147353207E-16 ) ) ;
#40 = FACE_OUTER_BOUND ( 'NONE', #178, .T. ) ;
#41 = FACE_OUTER_BOUND ( 'NONE', #149, .T. ) ;
#42 = AXIS2_PLACEMENT_3D ( 'NONE', #156, #218, #72 ) ;
#43 = CALENDAR_DATE ( 2021, 16, 11 ) ;
#44 = COORDINATED_UNIVERSAL_TIME_OFFSET ( 1, 0, .AHEAD. ) ;
#45 = EDGE_CURVE ( 'NONE', #211, #211, #113, .T. ) ;
#46 = AXIS2_PLACEMENT_3D ( 'NONE', #76, #127, #6 ) ;
#47 = COORDINATED_UNIVERSAL_TIME_OFFSET ( 1, 0, .AHEAD. ) ;
#48 = ADVANCED_FACE ( 'NONE', ( #204, #41 ), #154, .T. ) ;
#49 = SECURITY_CLASSIFICATION ( '', '', #167 ) ;
#50 = CC_DESIGN_DATE_AND_TIME_ASSIGNMENT ( #111, #168, ( #49 ) ) ;
#51 = CARTESIAN_POINT ( 'NONE',  ( 3.194705425041467083E-13, 7.999999999999986677, 91.50000000000000000 ) ) ;
#52 = DIRECTION ( 'NONE',  ( -4.191883672903289796E-31, -1.000000000000000000, -1.200603201359864205E-16 ) ) ;
#53 = CIRCLE ( 'NONE', #46, 7.500000000000004441 ) ;
#54 = FACE_OUTER_BOUND ( 'NONE', #135, .T. ) ;
#55 = VERTEX_POINT ( 'NONE', #194 ) ;
#56 = ORIENTED_EDGE ( 'NONE', *, *, #2, .T. ) ;
#57 = VERTEX_POINT ( 'NONE', #51 ) ;
#58 = DIRECTION ( 'NONE',  ( -4.275831445896958607E-31, -1.000000000000000000, -1.224646799147353207E-16 ) ) ;
#59 = AXIS2_PLACEMENT_3D ( 'NONE', #176, #155, #52 ) ;
#60 = CALENDAR_DATE ( 2021, 16, 11 ) ;
#61 = PERSON_AND_ORGANIZATION ( #201, #99 ) ;
#62 = APPROVAL_PERSON_ORGANIZATION ( #125, #80, #114 ) ;
#63 = CC_DESIGN_PERSON_AND_ORGANIZATION_ASSIGNMENT ( #13, #131, ( #161 ) ) ;
#64 = AXIS2_PLACEMENT_3D ( 'NONE', #159, #195, #141 ) ;
#65 = EDGE_CURVE ( 'NONE', #24, #24, #83, .T. ) ;
#66 = CIRCLE ( 'NONE', #64, 8.000000000000000000 ) ;
#67 = ADVANCED_FACE ( 'NONE', ( #106 ), #171, .T. ) ;
#68 = ORIENTED_EDGE ( 'NONE', *, *, #17, .T. ) ;
#69 = DIRECTION ( 'NONE',  ( 3.491481338843133355E-15, -1.200603201359864205E-16, 1.000000000000000000 ) ) ;
#70 = DIRECTION ( 'NONE',  ( 3.491481338843133355E-15, -1.224646799147353207E-16, 1.000000000000000000 ) ) ;
#71 = CARTESIAN_POINT ( 'NONE',  ( 1.117274028429802674E-13, 5.999039130647424958E-32, 32.00000000000000000 ) ) ;
#72 = DIRECTION ( 'NONE',  ( -4.212971753347078429E-31, -1.000000000000000000, -1.185846126156020475E-16 ) ) ;
#73 = CLOSED_SHELL ( 'NONE', ( #188, #67, #48, #25 ) ) ;
#74 = CC_DESIGN_SECURITY_CLASSIFICATION ( #49, ( #161 ) ) ;
#75 = FACE_OUTER_BOUND ( 'NONE', #23, .T. ) ;
#76 = CARTESIAN_POINT ( 'NONE',  ( 3.212162831735682182E-13, -1.126675055215564941E-14, 92.00000000000000000 ) ) ;
#77 = PERSON_AND_ORGANIZATION ( #201, #99 ) ;
#78 = DIRECTION ( 'NONE',  ( -3.491481338843133355E-15, 1.224646799147353207E-16, -1.000000000000000000 ) ) ;
#79 = APPROVAL_PERSON_ORGANIZATION ( #151, #36, #205 ) ;
#80 = APPROVAL ( #98, 'UNSPECIFIED' ) ;
#81 = EDGE_CURVE ( 'NONE', #55, #55, #119, .T. ) ;
#82 = CALENDAR_DATE ( 2021, 16, 11 ) ;
#83 = CIRCLE ( 'NONE', #59, 7.971891833059522092 ) ;
#84 = DIRECTION ( 'NONE',  ( -3.491481338843133355E-15, 1.224646799147353207E-16, -1.000000000000000000 ) ) ;
#85 = EDGE_LOOP ( 'NONE', ( #143 ) ) ;
#86 = DATE_AND_TIME ( #82, #8 ) ;
#87 = EDGE_LOOP ( 'NONE', ( #68 ) ) ;
#88 = DIRECTION ( 'NONE',  ( -3.491481338843133355E-15, 1.224646799147353207E-16, -1.000000000000000000 ) ) ;
#89 = AXIS2_PLACEMENT_3D ( 'NONE', #128, #222, #181 ) ;
#90 = ORIENTED_EDGE ( 'NONE', *, *, #17, .F. ) ;
#91 = APPLICATION_PROTOCOL_DEFINITION ( 'international standard', 'config_control_design', 1994, #132 ) ;
#92 = MANIFOLD_SOLID_BREP ( 'Corps-Déplacer/Copier1[2]', #73 ) ;
#93 = FACE_BOUND ( 'NONE', #175, .T. ) ;
#94 = APPROVAL_DATE_TIME ( #116, #36 ) ;
#95 = ORIENTED_EDGE ( 'NONE', *, *, #210, .F. ) ;
#96 = DIRECTION ( 'NONE',  ( 0.0000000000000000000, 1.000000000000000000, 0.0000000000000000000 ) ) ;
#97 = CALENDAR_DATE ( 2021, 16, 11 ) ;
#98 = APPROVAL_STATUS ( 'not_yet_approved' ) ;
#99 = ORGANIZATION ( 'UNSPECIFIED', 'UNSPECIFIED', '' ) ;
#100 = APPROVAL_STATUS ( 'not_yet_approved' ) ;
#101 = CYLINDRICAL_SURFACE ( 'NONE', #169, 8.000000000000000000 ) ;
#102 = CARTESIAN_POINT ( 'NONE',  ( -1.710332578358783092E-30, 5.999039130647430431E-32, -4.898587196589412829E-16 ) ) ;
#103 = CARTESIAN_POINT ( 'NONE',  ( 6.982962677686234170E-16, -2.401206402719717008E-17, 0.1999999999999990674 ) ) ;
#104 = ORIENTED_EDGE ( 'NONE', *, *, #2, .F. ) ;
#105 = CC_DESIGN_PERSON_AND_ORGANIZATION_ASSIGNMENT ( #129, #136, ( #49 ) ) ;
#106 = FACE_OUTER_BOUND ( 'NONE', #217, .T. ) ;
#107 = ORIENTED_EDGE ( 'NONE', *, *, #81, .F. ) ;
#108 = FACE_OUTER_BOUND ( 'NONE', #174, .T. ) ;
#109 = PERSON_AND_ORGANIZATION_ROLE ( 'creator' ) ;
#110 = CARTESIAN_POINT ( 'NONE',  ( 3.194705425041467083E-13, -1.120551821219828183E-14, 91.50000000000000000 ) ) ;
#111 = DATE_AND_TIME ( #97, #179 ) ;
#112 = DIRECTION ( 'NONE',  ( 4.275831445896958607E-31, 1.000000000000000000, 1.224646799147353207E-16 ) ) ;
#113 = CIRCLE ( 'NONE', #223, 8.000000000000000000 ) ;
#114 = APPROVAL_ROLE ( '' ) ;
#115 = COORDINATED_UNIVERSAL_TIME_OFFSET ( 1, 0, .AHEAD. ) ;
#116 = DATE_AND_TIME ( #43, #208 ) ;
#117 = PRODUCT_DEFINITION ( 'UNKNOWN', '', #161, #172 ) ;
#118 = LOCAL_TIME ( 10, 15, 47.00000000000000000, #47 ) ;
#119 = CIRCLE ( 'NONE', #42, 8.000000000000000000 ) ;
#120 = ORIENTED_EDGE ( 'NONE', *, *, #81, .T. ) ;
#121 = CARTESIAN_POINT ( 'NONE',  ( 1.117274028429802674E-13, 7.999999999999996447, 32.00000000000000000 ) ) ;
#122 = CIRCLE ( 'NONE', #89, 7.999999999999996447 ) ;
#123 = CARTESIAN_POINT ( 'NONE',  ( 0.0000000000000000000, 0.0000000000000000000, 0.0000000000000000000 ) ) ;
#124 = DIRECTION ( 'NONE',  ( 4.275831445896958607E-31, 1.000000000000000000, 1.224646799147353207E-16 ) ) ;
#125 = PERSON_AND_ORGANIZATION ( #201, #99 ) ;
#126 = DIRECTION ( 'NONE',  ( 4.275831445896958607E-31, 1.000000000000000000, 1.224646799147353207E-16 ) ) ;
#127 = DIRECTION ( 'NONE',  ( -3.491481338843133355E-15, 1.224646799147353207E-16, -1.000000000000000000 ) ) ;
#128 = CARTESIAN_POINT ( 'NONE',  ( 3.194705425041467083E-13, -1.120551821219828183E-14, 91.50000000000000000 ) ) ;
#129 = PERSON_AND_ORGANIZATION ( #201, #99 ) ;
#130 = EDGE_LOOP ( 'NONE', ( #120 ) ) ;
#131 = PERSON_AND_ORGANIZATION_ROLE ( 'design_supplier' ) ;
#132 = APPLICATION_CONTEXT ( 'configuration controlled 3d designs of mechanical parts and assemblies' ) ;
#133 = AXIS2_PLACEMENT_3D ( 'NONE', #110, #27, #196 ) ;
#134 = CALENDAR_DATE ( 2021, 16, 11 ) ;
#135 = EDGE_LOOP ( 'NONE', ( #164 ) ) ;
#136 = PERSON_AND_ORGANIZATION_ROLE ( 'classification_officer' ) ;
#137 = AXIS2_PLACEMENT_3D ( 'NONE', #103, #69, #163 ) ;
#138 = APPROVAL_ROLE ( '' ) ;
#139 = APPROVAL_PERSON_ORGANIZATION ( #77, #153, #138 ) ;
#140 = CARTESIAN_POINT ( 'NONE',  ( -6.672309202520364902E-30, -7.971891833059522092, -1.911025308452934774E-15 ) ) ;
#141 = DIRECTION ( 'NONE',  ( 0.0000000000000000000, 1.000000000000000000, 0.0000000000000000000 ) ) ;
#142 = CONICAL_SURFACE ( 'NONE', #133, 7.999999999999996447, 0.7853981633974405074 ) ;
#143 = ORIENTED_EDGE ( 'NONE', *, *, #65, .T. ) ;
#144 = DIRECTION ( 'NONE',  ( 0.0000000000000000000, 0.0000000000000000000, 1.000000000000000000 ) ) ;
#145 = VERTEX_POINT ( 'NONE', #7 ) ;
#146 = FACE_OUTER_BOUND ( 'NONE', #87, .T. ) ;
#147 = CC_DESIGN_APPROVAL ( #153, ( #117 ) ) ;
#148 = APPROVAL_DATE_TIME ( #189, #153 ) ;
#149 = EDGE_LOOP ( 'NONE', ( #107 ) ) ;
#150 = CC_DESIGN_PERSON_AND_ORGANIZATION_ASSIGNMENT ( #32, #109, ( #117 ) ) ;
#151 = PERSON_AND_ORGANIZATION ( #201, #99 ) ;
#152 = CC_DESIGN_APPROVAL ( #80, ( #161 ) ) ;
#153 = APPROVAL ( #100, 'UNSPECIFIED' ) ;
#154 = CONICAL_SURFACE ( 'NONE', #137, 8.000000000000000000, 0.1396263401595435327 ) ;
#155 = DIRECTION ( 'NONE',  ( 3.491481338843133355E-15, -1.200603201359864205E-16, 1.000000000000000000 ) ) ;
#156 = CARTESIAN_POINT ( 'NONE',  ( 6.982962677686234170E-16, -2.401206402719717008E-17, 0.1999999999999990674 ) ) ;
#157 = EDGE_LOOP ( 'NONE', ( #21 ) ) ;
#158 = DATE_TIME_ROLE ( 'creation_date' ) ;
#159 = CARTESIAN_POINT ( 'NONE',  ( 1.117274028429802674E-13, -3.918869757271530263E-15, 32.00000000000000000 ) ) ;
#160 = FACE_OUTER_BOUND ( 'NONE', #162, .T. ) ;
#161 = PRODUCT_DEFINITION_FORMATION_WITH_SPECIFIED_SOURCE ( 'ANY', '', #203, .NOT_KNOWN. ) ;
#162 = EDGE_LOOP ( 'NONE', ( #104 ) ) ;
#163 = DIRECTION ( 'NONE',  ( -4.212971753347078429E-31, -1.000000000000000000, -1.185846126156020475E-16 ) ) ;
#164 = ORIENTED_EDGE ( 'NONE', *, *, #45, .F. ) ;
#165 = SHAPE_DEFINITION_REPRESENTATION ( #20, #209 ) ;
#166 = PLANE ( 'NONE',  #12 ) ;
#167 = SECURITY_CLASSIFICATION_LEVEL ( 'unclassified' ) ;
#168 = DATE_TIME_ROLE ( 'classification_date' ) ;
#169 = AXIS2_PLACEMENT_3D ( 'NONE', #18, #84, #126 ) ;
#170 = PRODUCT_RELATED_PRODUCT_CATEGORY ( 'detail', '', ( #203 ) ) ;
#171 = PLANE ( 'NONE',  #221 ) ;
#172 = DESIGN_CONTEXT ( 'detailed design', #132, 'design' ) ;
#173 =( NAMED_UNIT ( * ) SI_UNIT ( $, .STERADIAN. ) SOLID_ANGLE_UNIT ( ) );
#174 = EDGE_LOOP ( 'NONE', ( #200 ) ) ;
#175 = EDGE_LOOP ( 'NONE', ( #56 ) ) ;
#176 = CARTESIAN_POINT ( 'NONE',  ( -3.330584880805035972E-30, 1.145276311750306939E-31, -9.539174228863531067E-16 ) ) ;
#177 = DIRECTION ( 'NONE',  ( -3.491481338843133355E-15, 1.224646799147353207E-16, -1.000000000000000000 ) ) ;
#178 = EDGE_LOOP ( 'NONE', ( #90 ) ) ;
#179 = LOCAL_TIME ( 10, 15, 47.00000000000000000, #206 ) ;
#180 = PERSON_AND_ORGANIZATION_ROLE ( 'design_owner' ) ;
#181 = DIRECTION ( 'NONE',  ( 0.0000000000000000000, 1.000000000000000000, 0.0000000000000000000 ) ) ;
#182 = PLANE ( 'NONE',  #207 ) ;
#183 = CARTESIAN_POINT ( 'NONE',  ( 1.117274028429802674E-13, -3.918869757271530263E-15, 32.00000000000000000 ) ) ;
#184 = CC_DESIGN_PERSON_AND_ORGANIZATION_ASSIGNMENT ( #61, #14, ( #161 ) ) ;
#185 = AXIS2_PLACEMENT_3D ( 'NONE', #102, #88, #124 ) ;
#186 = DATE_AND_TIME ( #60, #190 ) ;
#187 = AXIS2_PLACEMENT_3D ( 'NONE', #10, #177, #39 ) ;
#188 = ADVANCED_FACE ( 'NONE', ( #75, #9 ), #101, .T. ) ;
#189 = DATE_AND_TIME ( #134, #118 ) ;
#190 = LOCAL_TIME ( 10, 15, 47.00000000000000000, #220 ) ;
#191 = CC_DESIGN_PERSON_AND_ORGANIZATION_ASSIGNMENT ( #192, #180, ( #203 ) ) ;
#192 = PERSON_AND_ORGANIZATION ( #201, #99 ) ;
#193 = APPLICATION_CONTEXT ( 'configuration controlled 3d designs of mechanical parts and assemblies' ) ;
#194 = CARTESIAN_POINT ( 'NONE',  ( 6.982962677686199657E-16, -8.000000000000000000, 0.1999999999999981237 ) ) ;
#195 = DIRECTION ( 'NONE',  ( -3.491481338843133355E-15, 1.224646799147353207E-16, -1.000000000000000000 ) ) ;
#196 = DIRECTION ( 'NONE',  ( 0.0000000000000000000, 1.000000000000000000, 0.0000000000000000000 ) ) ;
#197 = ORIENTED_EDGE ( 'NONE', *, *, #210, .T. ) ;
#198 = CYLINDRICAL_SURFACE ( 'NONE', #187, 7.999999999999998224 ) ;
#199 = CC_DESIGN_APPROVAL ( #36, ( #49 ) ) ;
#200 = ORIENTED_EDGE ( 'NONE', *, *, #45, .T. ) ;
#201 = PERSON ( 'UNSPECIFIED', 'UNSPECIFIED', 'UNSPECIFIED', ('UNSPECIFIED'), ('UNSPECIFIED'), ('UNSPECIFIED') ) ;
#202 = PLANE ( 'NONE',  #185 ) ;
#203 = PRODUCT ( '968684', '968684', '', ( #22 ) ) ;
#204 = FACE_BOUND ( 'NONE', #85, .T. ) ;
#205 = APPROVAL_ROLE ( '' ) ;
#206 = COORDINATED_UNIVERSAL_TIME_OFFSET ( 1, 0, .AHEAD. ) ;
#207 = AXIS2_PLACEMENT_3D ( 'NONE', #71, #219, #58 ) ;
#208 = LOCAL_TIME ( 10, 15, 47.00000000000000000, #44 ) ;
#209 = ADVANCED_BREP_SHAPE_REPRESENTATION ( '968684', ( #16, #92, #19 ), #1 ) ;
#210 = EDGE_CURVE ( 'NONE', #145, #145, #66, .T. ) ;
#211 = VERTEX_POINT ( 'NONE', #121 ) ;
#212 = DIRECTION ( 'NONE',  ( -4.275831445896958607E-31, -1.000000000000000000, -1.224646799147353207E-16 ) ) ;
#213 = CC_DESIGN_DATE_AND_TIME_ASSIGNMENT ( #86, #158, ( #117 ) ) ;
#214 = CLOSED_SHELL ( 'NONE', ( #15, #4, #31, #38 ) ) ;
#215 = DIRECTION ( 'NONE',  ( 1.000000000000000000, 0.0000000000000000000, 0.0000000000000000000 ) ) ;
#216 = CARTESIAN_POINT ( 'NONE',  ( 1.117274028429802674E-13, 5.999039130647424958E-32, 32.00000000000000000 ) ) ;
#217 = EDGE_LOOP ( 'NONE', ( #95 ) ) ;
#218 = DIRECTION ( 'NONE',  ( 3.491481338843133355E-15, -1.200603201359864205E-16, 1.000000000000000000 ) ) ;
#219 = DIRECTION ( 'NONE',  ( 3.491481338843133355E-15, -1.224646799147353207E-16, 1.000000000000000000 ) ) ;
#220 = COORDINATED_UNIVERSAL_TIME_OFFSET ( 1, 0, .AHEAD. ) ;
#221 = AXIS2_PLACEMENT_3D ( 'NONE', #216, #70, #212 ) ;
#222 = DIRECTION ( 'NONE',  ( -3.491481338843133355E-15, 1.224646799147353207E-16, -1.000000000000000000 ) ) ;
#223 = AXIS2_PLACEMENT_3D ( 'NONE', #183, #29, #96 ) ;
ENDSEC;
END-ISO-10303-21;
