ISO-10303-21;
HEADER;
FILE_DESCRIPTION (( 'STEP AP203' ),
    '1' );
FILE_NAME ('968683.step',
    '2021-11-16T09:15:45',
    ( '' ),
    ( '' ),
    'SwSTEP 2.0',
    'SolidWorks 2019',
    '' );
FILE_SCHEMA (( 'CONFIG_CONTROL_DESIGN' ));
ENDSEC;

DATA;
#1 = SECURITY_CLASSIFICATION ( '', '', #204 ) ;
#2 = EDGE_CURVE ( 'NONE', #60, #60, #103, .T. ) ;
#3 = CIRCLE ( 'NONE', #142, 5.999999999999994671 ) ;
#4 = PRODUCT_DEFINITION_SHAPE ( 'NONE', 'NONE',  #179 ) ;
#5 = FACE_OUTER_BOUND ( 'NONE', #77, .T. ) ;
#6 = VERTEX_POINT ( 'NONE', #29 ) ;
#7 = EDGE_LOOP ( 'NONE', ( #37 ) ) ;
#8 = PERSON_AND_ORGANIZATION_ROLE ( 'design_supplier' ) ;
#9 =( LENGTH_UNIT ( ) NAMED_UNIT ( * ) SI_UNIT ( .MILLI., .METRE. ) );
#10 = DIRECTION ( 'NONE',  ( 4.275831445896958607E-31, 1.000000000000000000, 1.224646799147353207E-16 ) ) ;
#11 = AXIS2_PLACEMENT_3D ( 'NONE', #153, #171, #169 ) ;
#12 = CARTESIAN_POINT ( 'NONE',  ( 9.077851480992146724E-14, 4.499279347985567350E-32, 26.00000000000000000 ) ) ;
#13 = CC_DESIGN_DATE_AND_TIME_ASSIGNMENT ( #75, #22, ( #179 ) ) ;
#14 = PERSON_AND_ORGANIZATION ( #99, #160 ) ;
#15 = VERTEX_POINT ( 'NONE', #26 ) ;
#16 = DIRECTION ( 'NONE',  ( 4.275831445896959482E-31, 1.000000000000000000, 1.224646799147353207E-16 ) ) ;
#17 = ADVANCED_FACE ( 'NONE', ( #43, #5 ), #212, .T. ) ;
#18 = CIRCLE ( 'NONE', #40, 5.499999999999994671 ) ;
#19 = PERSON_AND_ORGANIZATION ( #99, #160 ) ;
#20 = ADVANCED_FACE ( 'NONE', ( #61 ), #220, .F. ) ;
#21 = CC_DESIGN_SECURITY_CLASSIFICATION ( #1, ( #81 ) ) ;
#22 = DATE_TIME_ROLE ( 'creation_date' ) ;
#23 = CIRCLE ( 'NONE', #111, 6.000000000000000000 ) ;
#24 = DIRECTION ( 'NONE',  ( 3.491481338843133355E-15, -1.200603201359864205E-16, 1.000000000000000000 ) ) ;
#25 = PERSON_AND_ORGANIZATION ( #99, #160 ) ;
#26 = CARTESIAN_POINT ( 'NONE',  ( 2.880472104545584198E-13, 5.999999999999984901, 82.49999999999998579 ) ) ;
#27 = CARTESIAN_POINT ( 'NONE',  ( -2.509238895438322774E-30, 8.628430051521152361E-32, -7.186745830552637730E-16 ) ) ;
#28 = CALENDAR_DATE ( 2021, 16, 11 ) ;
#29 = CARTESIAN_POINT ( 'NONE',  ( 2.897929511239800306E-13, 5.499999999999984013, 82.99999999999998579 ) ) ;
#30 = DIRECTION ( 'NONE',  ( -3.491481338843133355E-15, 1.224646799147353207E-16, -1.000000000000000000 ) ) ;
#31 = DIRECTION ( 'NONE',  ( 0.0000000000000000000, 1.000000000000000000, 0.0000000000000000000 ) ) ;
#32 = AXIS2_PLACEMENT_3D ( 'NONE', #110, #190, #203 ) ;
#33 = COORDINATED_UNIVERSAL_TIME_OFFSET ( 1, 0, .AHEAD. ) ;
#34 = DIRECTION ( 'NONE',  ( -4.172848212839010723E-31, -1.000000000000000000, -1.197139898786077895E-16 ) ) ;
#35 = APPROVAL ( #45, 'UNSPECIFIED' ) ;
#36 = EDGE_CURVE ( 'NONE', #15, #15, #3, .T. ) ;
#37 = ORIENTED_EDGE ( 'NONE', *, *, #2, .F. ) ;
#38 = AXIS2_PLACEMENT_3D ( 'NONE', #12, #91, #96 ) ;
#39 = PERSON_AND_ORGANIZATION_ROLE ( 'design_owner' ) ;
#40 = AXIS2_PLACEMENT_3D ( 'NONE', #49, #159, #135 ) ;
#41 = APPROVAL_ROLE ( '' ) ;
#42 = COORDINATED_UNIVERSAL_TIME_OFFSET ( 1, 0, .AHEAD. ) ;
#43 = FACE_OUTER_BOUND ( 'NONE', #174, .T. ) ;
#44 = FACE_OUTER_BOUND ( 'NONE', #7, .T. ) ;
#45 = APPROVAL_STATUS ( 'not_yet_approved' ) ;
#46 = CARTESIAN_POINT ( 'NONE',  ( 9.077851480992146724E-14, 5.999999999999996447, 26.00000000000000000 ) ) ;
#47 = FACE_OUTER_BOUND ( 'NONE', #191, .T. ) ;
#48 = CARTESIAN_POINT ( 'NONE',  ( 9.077851480992146724E-14, -3.184081677783118191E-15, 26.00000000000000000 ) ) ;
#49 = CARTESIAN_POINT ( 'NONE',  ( 2.897929511239800306E-13, -1.016456843292302992E-14, 82.99999999999998579 ) ) ;
#50 = AXIS2_PLACEMENT_3D ( 'NONE', #94, #102, #113 ) ;
#51 = EDGE_CURVE ( 'NONE', #6, #6, #18, .T. ) ;
#52 = ORIENTED_EDGE ( 'NONE', *, *, #147, .F. ) ;
#53 = CC_DESIGN_PERSON_AND_ORGANIZATION_ASSIGNMENT ( #19, #88, ( #179 ) ) ;
#54 = CONICAL_SURFACE ( 'NONE', #32, 6.000000000000000000, 0.1396263401595435327 ) ;
#55 = PERSON_AND_ORGANIZATION_ROLE ( 'creator' ) ;
#56 = DIRECTION ( 'NONE',  ( 0.0000000000000000000, 1.000000000000000000, 0.0000000000000000000 ) ) ;
#57 = DATE_AND_TIME ( #100, #221 ) ;
#58 = CARTESIAN_POINT ( 'NONE',  ( 3.491481338843083065E-16, -6.000000000000000000, 0.09999999999999856226 ) ) ;
#59 = DIRECTION ( 'NONE',  ( -3.491481338843133355E-15, 1.224646799147353207E-16, -1.000000000000000000 ) ) ;
#60 = VERTEX_POINT ( 'NONE', #158 ) ;
#61 = FACE_OUTER_BOUND ( 'NONE', #208, .T. ) ;
#62 = APPROVAL ( #149, 'UNSPECIFIED' ) ;
#63 = CALENDAR_DATE ( 2021, 16, 11 ) ;
#64 = DIRECTION ( 'NONE',  ( -4.191883672903289796E-31, -1.000000000000000000, -1.200603201359864205E-16 ) ) ;
#65 = DATE_AND_TIME ( #28, #182 ) ;
#66 = ORIENTED_EDGE ( 'NONE', *, *, #170, .T. ) ;
#68 = ORIENTED_EDGE ( 'NONE', *, *, #2, .T. ) ;
#67 = LOCAL_TIME ( 10, 15, 45.00000000000000000, #105 ) ;
#69 = CC_DESIGN_PERSON_AND_ORGANIZATION_ASSIGNMENT ( #25, #118, ( #1 ) ) ;
#70 = CALENDAR_DATE ( 2021, 16, 11 ) ;
#71 = CC_DESIGN_APPROVAL ( #62, ( #81 ) ) ;
#72 = APPLICATION_CONTEXT ( 'configuration controlled 3d designs of mechanical parts and assemblies' ) ;
#73 = PERSON_AND_ORGANIZATION ( #99, #160 ) ;
#74 = AXIS2_PLACEMENT_3D ( 'NONE', #82, #30, #217 ) ;
#75 = DATE_AND_TIME ( #63, #223 ) ;
#76 = FACE_OUTER_BOUND ( 'NONE', #117, .T. ) ;
#77 = EDGE_LOOP ( 'NONE', ( #185 ) ) ;
#78 = ADVANCED_FACE ( 'NONE', ( #44 ), #150, .T. ) ;
#79 = VERTEX_POINT ( 'NONE', #58 ) ;
#80 = EDGE_LOOP ( 'NONE', ( #68 ) ) ;
#81 = PRODUCT_DEFINITION_FORMATION_WITH_SPECIFIED_SOURCE ( 'ANY', '', #109, .NOT_KNOWN. ) ;
#82 = CARTESIAN_POINT ( 'NONE',  ( 2.880472104545584198E-13, -1.010333609296566392E-14, 82.49999999999998579 ) ) ;
#83 = ORIENTED_EDGE ( 'NONE', *, *, #51, .F. ) ;
#84 = CARTESIAN_POINT ( 'NONE',  ( 3.491481338843108210E-16, -1.200603201359855576E-17, 0.09999999999999928391 ) ) ;
#85 = ORIENTED_EDGE ( 'NONE', *, *, #36, .F. ) ;
#86 = MANIFOLD_SOLID_BREP ( 'Corps-Déplacer/Copier1[1]', #177 ) ;
#87 = PRODUCT_RELATED_PRODUCT_CATEGORY ( 'detail', '', ( #109 ) ) ;
#88 = PERSON_AND_ORGANIZATION_ROLE ( 'creator' ) ;
#89 = CONICAL_SURFACE ( 'NONE', #74, 5.999999999999994671, 0.7853981633974482790 ) ;
#90 = APPROVAL ( #148, 'UNSPECIFIED' ) ;
#91 = DIRECTION ( 'NONE',  ( 3.491481338843133355E-15, -1.224646799147353207E-16, 1.000000000000000000 ) ) ;
#92 = APPROVAL_PERSON_ORGANIZATION ( #213, #62, #129 ) ;
#93 = AXIS2_PLACEMENT_3D ( 'NONE', #101, #184, #10 ) ;
#94 = CARTESIAN_POINT ( 'NONE',  ( 9.077851480992146724E-14, -3.184081677783118191E-15, 26.00000000000000000 ) ) ;
#95 = DIRECTION ( 'NONE',  ( 3.491481338843133355E-15, -1.200603201359864205E-16, 1.000000000000000000 ) ) ;
#96 = DIRECTION ( 'NONE',  ( -4.275831445896958607E-31, -1.000000000000000000, -1.224646799147353207E-16 ) ) ;
#97 = DIRECTION ( 'NONE',  ( 4.275831445896958607E-31, 1.000000000000000000, 1.224646799147353454E-16 ) ) ;
#98 = DIRECTION ( 'NONE',  ( -3.491481338843133355E-15, 1.224646799147353207E-16, -1.000000000000000000 ) ) ;
#99 = PERSON ( 'UNSPECIFIED', 'UNSPECIFIED', 'UNSPECIFIED', ('UNSPECIFIED'), ('UNSPECIFIED'), ('UNSPECIFIED') ) ;
#100 = CALENDAR_DATE ( 2021, 16, 11 ) ;
#101 = CARTESIAN_POINT ( 'NONE',  ( 2.897929511239800306E-13, 1.740782235831814945E-30, 82.99999999999998579 ) ) ;
#102 = DIRECTION ( 'NONE',  ( -3.491481338843133355E-15, 1.224646799147353207E-16, -1.000000000000000000 ) ) ;
#103 = CIRCLE ( 'NONE', #194, 5.985945916529761490 ) ;
#104 = ORIENTED_EDGE ( 'NONE', *, *, #144, .F. ) ;
#105 = COORDINATED_UNIVERSAL_TIME_OFFSET ( 1, 0, .AHEAD. ) ;
#106 = DESIGN_CONTEXT ( 'detailed design', #172, 'design' ) ;
#107 =( GEOMETRIC_REPRESENTATION_CONTEXT ( 3 ) GLOBAL_UNCERTAINTY_ASSIGNED_CONTEXT ( ( #195 ) ) GLOBAL_UNIT_ASSIGNED_CONTEXT ( ( #9, #134, #178 ) ) REPRESENTATION_CONTEXT ( 'NONE', 'WORKASPACE' ) );
#108 = CC_DESIGN_PERSON_AND_ORGANIZATION_ASSIGNMENT ( #128, #39, ( #109 ) ) ;
#109 = PRODUCT ( '968683', '968683', '', ( #123 ) ) ;
#110 = CARTESIAN_POINT ( 'NONE',  ( 3.491481338843108210E-16, -1.200603201359855576E-17, 0.09999999999999928391 ) ) ;
#111 = AXIS2_PLACEMENT_3D ( 'NONE', #84, #24, #34 ) ;
#112 = PERSON_AND_ORGANIZATION ( #99, #160 ) ;
#113 = DIRECTION ( 'NONE',  ( 0.0000000000000000000, 1.000000000000000000, 0.0000000000000000000 ) ) ;
#114 = EDGE_LOOP ( 'NONE', ( #83 ) ) ;
#115 = COORDINATED_UNIVERSAL_TIME_OFFSET ( 1, 0, .AHEAD. ) ;
#116 = VERTEX_POINT ( 'NONE', #136 ) ;
#117 = EDGE_LOOP ( 'NONE', ( #52 ) ) ;
#118 = PERSON_AND_ORGANIZATION_ROLE ( 'classification_officer' ) ;
#119 = CARTESIAN_POINT ( 'NONE',  ( 2.880472104545584198E-13, -1.010333609296566392E-14, 82.49999999999998579 ) ) ;
#120 = FACE_OUTER_BOUND ( 'NONE', #114, .T. ) ;
#121 = EDGE_LOOP ( 'NONE', ( #156 ) ) ;
#122 = APPROVAL_PERSON_ORGANIZATION ( #73, #90, #41 ) ;
#123 = MECHANICAL_CONTEXT ( 'NONE', #72, 'mechanical' ) ;
#124 = CC_DESIGN_PERSON_AND_ORGANIZATION_ASSIGNMENT ( #14, #55, ( #81 ) ) ;
#125 = LOCAL_TIME ( 10, 15, 45.00000000000000000, #115 ) ;
#126 = ADVANCED_FACE ( 'NONE', ( #205, #47 ), #54, .T. ) ;
#127 = AXIS2_PLACEMENT_3D ( 'NONE', #48, #189, #31 ) ;
#128 = PERSON_AND_ORGANIZATION ( #99, #160 ) ;
#129 = APPROVAL_ROLE ( '' ) ;
#130 = FACE_OUTER_BOUND ( 'NONE', #196, .T. ) ;
#131 = CC_DESIGN_APPROVAL ( #35, ( #1 ) ) ;
#132 = CALENDAR_DATE ( 2021, 16, 11 ) ;
#133 = CARTESIAN_POINT ( 'NONE',  ( 0.0000000000000000000, 0.0000000000000000000, 0.0000000000000000000 ) ) ;
#134 =( NAMED_UNIT ( * ) PLANE_ANGLE_UNIT ( ) SI_UNIT ( $, .RADIAN. ) );
#135 = DIRECTION ( 'NONE',  ( 0.0000000000000000000, 1.000000000000000000, 0.0000000000000000000 ) ) ;
#136 = CARTESIAN_POINT ( 'NONE',  ( 9.077851480992146724E-14, 5.999999999999996447, 26.00000000000000000 ) ) ;
#137 = DIRECTION ( 'NONE',  ( 4.275831445896958607E-31, 1.000000000000000000, 1.224646799147353207E-16 ) ) ;
#138 = FACE_OUTER_BOUND ( 'NONE', #161, .T. ) ;
#139 = CIRCLE ( 'NONE', #127, 6.000000000000000000 ) ;
#140 = ADVANCED_FACE ( 'NONE', ( #120 ), #201, .F. ) ;
#141 = ORIENTED_EDGE ( 'NONE', *, *, #170, .F. ) ;
#142 = AXIS2_PLACEMENT_3D ( 'NONE', #119, #181, #56 ) ;
#143 = CARTESIAN_POINT ( 'NONE',  ( 0.0000000000000000000, 0.0000000000000000000, 0.0000000000000000000 ) ) ;
#144 = EDGE_CURVE ( 'NONE', #79, #79, #23, .T. ) ;
#145 = DIRECTION ( 'NONE',  ( 0.0000000000000000000, 0.0000000000000000000, 1.000000000000000000 ) ) ;
#146 = APPROVAL_DATE_TIME ( #180, #90 ) ;
#147 = EDGE_CURVE ( 'NONE', #200, #200, #206, .T. ) ;
#148 = APPROVAL_STATUS ( 'not_yet_approved' ) ;
#149 = APPROVAL_STATUS ( 'not_yet_approved' ) ;
#150 = PLANE ( 'NONE',  #154 ) ;
#151 = DATE_TIME_ROLE ( 'classification_date' ) ;
#152 = CYLINDRICAL_SURFACE ( 'NONE', #164, 5.999999999999997335 ) ;
#153 = CARTESIAN_POINT ( 'NONE',  ( 9.077851480992146724E-14, 4.499279347985567350E-32, 26.00000000000000000 ) ) ;
#154 = AXIS2_PLACEMENT_3D ( 'NONE', #219, #59, #137 ) ;
#155 = APPROVAL_DATE_TIME ( #65, #35 ) ;
#156 = ORIENTED_EDGE ( 'NONE', *, *, #51, .T. ) ;
#157 = APPROVAL_DATE_TIME ( #57, #62 ) ;
#158 = CARTESIAN_POINT ( 'NONE',  ( -5.018477790876645548E-30, -5.985945916529761490, -1.437349166110527546E-15 ) ) ;
#159 = DIRECTION ( 'NONE',  ( -3.491481338843133355E-15, 1.224646799147353207E-16, -1.000000000000000000 ) ) ;
#160 = ORGANIZATION ( 'UNSPECIFIED', 'UNSPECIFIED', '' ) ;
#161 = EDGE_LOOP ( 'NONE', ( #197 ) ) ;
#162 = APPLICATION_PROTOCOL_DEFINITION ( 'international standard', 'config_control_design', 1994, #72 ) ;
#163 = ADVANCED_FACE ( 'NONE', ( #188, #168 ), #89, .T. ) ;
#164 = AXIS2_PLACEMENT_3D ( 'NONE', #207, #167, #97 ) ;
#165 = APPLICATION_PROTOCOL_DEFINITION ( 'international standard', 'config_control_design', 1994, #172 ) ;
#166 = MANIFOLD_SOLID_BREP ( 'Corps-Déplacer/Copier1[2]', #210 ) ;
#167 = DIRECTION ( 'NONE',  ( -3.491481338843133355E-15, 1.224646799147353207E-16, -1.000000000000000000 ) ) ;
#168 = FACE_OUTER_BOUND ( 'NONE', #175, .T. ) ;
#169 = DIRECTION ( 'NONE',  ( -4.275831445896958607E-31, -1.000000000000000000, -1.224646799147353207E-16 ) ) ;
#170 = EDGE_CURVE ( 'NONE', #116, #116, #139, .T. ) ;
#171 = DIRECTION ( 'NONE',  ( 3.491481338843133355E-15, -1.224646799147353207E-16, 1.000000000000000000 ) ) ;
#172 = APPLICATION_CONTEXT ( 'configuration controlled 3d designs of mechanical parts and assemblies' ) ;
#173 = PLANE ( 'NONE',  #38 ) ;
#174 = EDGE_LOOP ( 'NONE', ( #66 ) ) ;
#175 = EDGE_LOOP ( 'NONE', ( #85 ) ) ;
#176 = CC_DESIGN_DATE_AND_TIME_ASSIGNMENT ( #187, #151, ( #1 ) ) ;
#177 = CLOSED_SHELL ( 'NONE', ( #20, #198, #163, #140 ) ) ;
#178 =( NAMED_UNIT ( * ) SI_UNIT ( $, .STERADIAN. ) SOLID_ANGLE_UNIT ( ) );
#179 = PRODUCT_DEFINITION ( 'UNKNOWN', '', #81, #106 ) ;
#180 = DATE_AND_TIME ( #70, #67 ) ;
#181 = DIRECTION ( 'NONE',  ( -3.491481338843133355E-15, 1.224646799147353207E-16, -1.000000000000000000 ) ) ;
#182 = LOCAL_TIME ( 10, 15, 45.00000000000000000, #199 ) ;
#183 = PERSON_AND_ORGANIZATION ( #99, #160 ) ;
#184 = DIRECTION ( 'NONE',  ( -3.491481338843133355E-15, 1.224646799147353207E-16, -1.000000000000000000 ) ) ;
#185 = ORIENTED_EDGE ( 'NONE', *, *, #144, .T. ) ;
#186 = ADVANCED_FACE ( 'NONE', ( #130 ), #173, .T. ) ;
#187 = DATE_AND_TIME ( #132, #125 ) ;
#188 = FACE_BOUND ( 'NONE', #121, .T. ) ;
#189 = DIRECTION ( 'NONE',  ( -3.491481338843133355E-15, 1.224646799147353207E-16, -1.000000000000000000 ) ) ;
#190 = DIRECTION ( 'NONE',  ( 3.491481338843133355E-15, -1.200603201359864205E-16, 1.000000000000000000 ) ) ;
#191 = EDGE_LOOP ( 'NONE', ( #104 ) ) ;
#192 = AXIS2_PLACEMENT_3D ( 'NONE', #143, #145, #193 ) ;
#193 = DIRECTION ( 'NONE',  ( 1.000000000000000000, 0.0000000000000000000, 0.0000000000000000000 ) ) ;
#194 = AXIS2_PLACEMENT_3D ( 'NONE', #27, #95, #64 ) ;
#195 = UNCERTAINTY_MEASURE_WITH_UNIT (LENGTH_MEASURE( 1.000000000000000082E-05 ), #9, 'distance_accuracy_value', 'NONE');
#196 = EDGE_LOOP ( 'NONE', ( #141 ) ) ;
#197 = ORIENTED_EDGE ( 'NONE', *, *, #36, .T. ) ;
#198 = ADVANCED_FACE ( 'NONE', ( #138, #76 ), #152, .T. ) ;
#199 = COORDINATED_UNIVERSAL_TIME_OFFSET ( 1, 0, .AHEAD. ) ;
#200 = VERTEX_POINT ( 'NONE', #46 ) ;
#201 = PLANE ( 'NONE',  #93 ) ;
#202 = SHAPE_DEFINITION_REPRESENTATION ( #4, #218 ) ;
#203 = DIRECTION ( 'NONE',  ( -4.172848212839010723E-31, -1.000000000000000000, -1.197139898786077895E-16 ) ) ;
#204 = SECURITY_CLASSIFICATION_LEVEL ( 'unclassified' ) ;
#205 = FACE_BOUND ( 'NONE', #80, .T. ) ;
#206 = CIRCLE ( 'NONE', #50, 6.000000000000000000 ) ;
#207 = CARTESIAN_POINT ( 'NONE',  ( 0.0000000000000000000, 0.0000000000000000000, 0.0000000000000000000 ) ) ;
#208 = EDGE_LOOP ( 'NONE', ( #214 ) ) ;
#209 = AXIS2_PLACEMENT_3D ( 'NONE', #133, #98, #16 ) ;
#210 = CLOSED_SHELL ( 'NONE', ( #17, #186, #126, #78 ) ) ;
#211 = CC_DESIGN_PERSON_AND_ORGANIZATION_ASSIGNMENT ( #112, #8, ( #81 ) ) ;
#212 = CYLINDRICAL_SURFACE ( 'NONE', #209, 6.000000000000000000 ) ;
#213 = PERSON_AND_ORGANIZATION ( #99, #160 ) ;
#214 = ORIENTED_EDGE ( 'NONE', *, *, #147, .T. ) ;
#215 = APPROVAL_PERSON_ORGANIZATION ( #183, #35, #216 ) ;
#216 = APPROVAL_ROLE ( '' ) ;
#217 = DIRECTION ( 'NONE',  ( 0.0000000000000000000, 1.000000000000000000, 0.0000000000000000000 ) ) ;
#218 = ADVANCED_BREP_SHAPE_REPRESENTATION ( '968683', ( #86, #166, #192 ), #107 ) ;
#219 = CARTESIAN_POINT ( 'NONE',  ( -1.282749433769087757E-30, 4.499279347985572824E-32, -3.673940397442059868E-16 ) ) ;
#220 = PLANE ( 'NONE',  #11 ) ;
#221 = LOCAL_TIME ( 10, 15, 45.00000000000000000, #42 ) ;
#222 = CC_DESIGN_APPROVAL ( #90, ( #179 ) ) ;
#223 = LOCAL_TIME ( 10, 15, 45.00000000000000000, #33 ) ;
ENDSEC;
END-ISO-10303-21;
