ISO-10303-21;
HEADER;
FILE_DESCRIPTION (( 'STEP AP203' ),
    '1' );
FILE_NAME ('968682.step',
    '2021-11-16T09:15:45',
    ( '' ),
    ( '' ),
    'SwSTEP 2.0',
    'SolidWorks 2019',
    '' );
FILE_SCHEMA (( 'CONFIG_CONTROL_DESIGN' ));
ENDSEC;

DATA;
#1 = CC_DESIGN_APPROVAL ( #207, ( #202 ) ) ;
#2 = CARTESIAN_POINT ( 'NONE',  ( 3.491481338843091447E-16, -5.000000000000000000, 0.09999999999999881206 ) ) ;
#3 = UNCERTAINTY_MEASURE_WITH_UNIT (LENGTH_MEASURE( 1.000000000000000082E-05 ), #27, 'distance_accuracy_value', 'NONE');
#4 = CIRCLE ( 'NONE', #134, 5.000000000000000000 ) ;
#5 = DIRECTION ( 'NONE',  ( -3.491481338843133355E-15, 1.224646799147353207E-16, -1.000000000000000000 ) ) ;
#6 = DIRECTION ( 'NONE',  ( 0.0000000000000000000, 1.000000000000000000, 0.0000000000000000000 ) ) ;
#7 = MANIFOLD_SOLID_BREP ( 'Corps-Déplacer/Copier1[2]', #23 ) ;
#8 = DIRECTION ( 'NONE',  ( 3.491481338843133355E-15, -1.200603201359864205E-16, 1.000000000000000000 ) ) ;
#9 = PERSON_AND_ORGANIZATION_ROLE ( 'classification_officer' ) ;
#10 = CARTESIAN_POINT ( 'NONE',  ( 3.491481338843112648E-16, -1.200603201359857117E-17, 0.09999999999999940881 ) ) ;
#11 = SECURITY_CLASSIFICATION ( '', '', #197 ) ;
#12 = ADVANCED_FACE ( 'NONE', ( #87, #41 ), #188, .T. ) ;
#13 = DIRECTION ( 'NONE',  ( 0.0000000000000000000, 1.000000000000000000, 0.0000000000000000000 ) ) ;
#14 = ORIENTED_EDGE ( 'NONE', *, *, #21, .F. ) ;
#15 = CALENDAR_DATE ( 2021, 16, 11 ) ;
#16 = EDGE_LOOP ( 'NONE', ( #133 ) ) ;
#17 = AXIS2_PLACEMENT_3D ( 'NONE', #176, #73, #80 ) ;
#18 = APPROVAL_PERSON_ORGANIZATION ( #137, #99, #37 ) ;
#19 = MANIFOLD_SOLID_BREP ( 'Corps-Déplacer/Copier1[1]', #39 ) ;
#20 = PRODUCT ( '968682', '968682', '', ( #128 ) ) ;
#21 = EDGE_CURVE ( 'NONE', #182, #182, #4, .T. ) ;
#22 = ORGANIZATION ( 'UNSPECIFIED', 'UNSPECIFIED', '' ) ;
#23 = CLOSED_SHELL ( 'NONE', ( #124, #77, #174, #186 ) ) ;
#24 = PERSON ( 'UNSPECIFIED', 'UNSPECIFIED', 'UNSPECIFIED', ('UNSPECIFIED'), ('UNSPECIFIED'), ('UNSPECIFIED') ) ;
#25 = FACE_OUTER_BOUND ( 'NONE', #53, .T. ) ;
#26 = EDGE_CURVE ( 'NONE', #81, #81, #129, .T. ) ;
#27 =( LENGTH_UNIT ( ) NAMED_UNIT ( * ) SI_UNIT ( .MILLI., .METRE. ) );
#28 = AXIS2_PLACEMENT_3D ( 'NONE', #96, #160, #6 ) ;
#29 = DESIGN_CONTEXT ( 'detailed design', #47, 'design' ) ;
#30 = LOCAL_TIME ( 10, 15, 45.00000000000000000, #113 ) ;
#31 = EDGE_LOOP ( 'NONE', ( #201 ) ) ;
#32 = FACE_OUTER_BOUND ( 'NONE', #164, .T. ) ;
#33 = CARTESIAN_POINT ( 'NONE',  ( 2.496409157272839907E-13, 4.999999999999990230, 71.49999999999998579 ) ) ;
#34 = DIRECTION ( 'NONE',  ( -3.491481338843133355E-15, 1.224646799147353207E-16, -1.000000000000000000 ) ) ;
#35 = CC_DESIGN_PERSON_AND_ORGANIZATION_ASSIGNMENT ( #103, #205, ( #110 ) ) ;
#36 = VERTEX_POINT ( 'NONE', #71 ) ;
#37 = APPROVAL_ROLE ( '' ) ;
#38 = EDGE_LOOP ( 'NONE', ( #195 ) ) ;
#39 = CLOSED_SHELL ( 'NONE', ( #131, #155, #12, #122 ) ) ;
#40 = PERSON_AND_ORGANIZATION ( #24, #22 ) ;
#41 = FACE_OUTER_BOUND ( 'NONE', #38, .T. ) ;
#42 = APPROVAL_DATE_TIME ( #200, #99 ) ;
#43 = DIRECTION ( 'NONE',  ( 3.491481338843133355E-15, -1.200603201359864205E-16, 1.000000000000000000 ) ) ;
#44 = CC_DESIGN_PERSON_AND_ORGANIZATION_ASSIGNMENT ( #216, #149, ( #20 ) ) ;
#45 = ADVANCED_BREP_SHAPE_REPRESENTATION ( '968682', ( #19, #7, #141 ), #139 ) ;
#46 = AXIS2_PLACEMENT_3D ( 'NONE', #74, #135, #178 ) ;
#47 = APPLICATION_CONTEXT ( 'configuration controlled 3d designs of mechanical parts and assemblies' ) ;
#48 = CC_DESIGN_APPROVAL ( #99, ( #110 ) ) ;
#49 = EDGE_CURVE ( 'NONE', #56, #56, #91, .T. ) ;
#50 = CYLINDRICAL_SURFACE ( 'NONE', #173, 4.999999999999999112 ) ;
#51 = CC_DESIGN_DATE_AND_TIME_ASSIGNMENT ( #120, #63, ( #11 ) ) ;
#52 =( NAMED_UNIT ( * ) SI_UNIT ( $, .STERADIAN. ) SOLID_ANGLE_UNIT ( ) );
#53 = EDGE_LOOP ( 'NONE', ( #14 ) ) ;
#54 = DIRECTION ( 'NONE',  ( -3.491481338843133355E-15, 1.224646799147353207E-16, -1.000000000000000000 ) ) ;
#55 = CIRCLE ( 'NONE', #78, 5.000000000000000000 ) ;
#56 = VERTEX_POINT ( 'NONE', #111 ) ;
#57 = EDGE_LOOP ( 'NONE', ( #215 ) ) ;
#58 = APPROVAL_ROLE ( '' ) ;
#59 = ORIENTED_EDGE ( 'NONE', *, *, #26, .F. ) ;
#60 = DATE_AND_TIME ( #199, #90 ) ;
#61 = EDGE_LOOP ( 'NONE', ( #116 ) ) ;
#62 = DIRECTION ( 'NONE',  ( -3.491481338843133355E-15, 1.224646799147353207E-16, -1.000000000000000000 ) ) ;
#63 = DATE_TIME_ROLE ( 'classification_date' ) ;
#64 = APPROVAL_STATUS ( 'not_yet_approved' ) ;
#65 = LOCAL_TIME ( 10, 15, 45.00000000000000000, #136 ) ;
#66 = AXIS2_PLACEMENT_3D ( 'NONE', #204, #62, #67 ) ;
#67 = DIRECTION ( 'NONE',  ( 4.275831445896958607E-31, 1.000000000000000000, 1.224646799147353207E-16 ) ) ;
#68 = CARTESIAN_POINT ( 'NONE',  ( 7.681258945454893382E-14, 3.749399456654640188E-32, 22.00000000000000000 ) ) ;
#69 = CARTESIAN_POINT ( 'NONE',  ( 3.491481338843112648E-16, -1.200603201359857117E-17, 0.09999999999999940881 ) ) ;
#70 = COORDINATED_UNIVERSAL_TIME_OFFSET ( 1, 0, .AHEAD. ) ;
#71 = CARTESIAN_POINT ( 'NONE',  ( 7.681258945454893382E-14, 4.999999999999997335, 22.00000000000000000 ) ) ;
#72 = APPROVAL_STATUS ( 'not_yet_approved' ) ;
#73 = DIRECTION ( 'NONE',  ( 3.491481338843133355E-15, -1.224646799147353207E-16, 1.000000000000000000 ) ) ;
#74 = CARTESIAN_POINT ( 'NONE',  ( 7.681258945454893382E-14, -2.694222958124176809E-15, 22.00000000000000000 ) ) ;
#75 = PRODUCT_RELATED_PRODUCT_CATEGORY ( 'detail', '', ( #20 ) ) ;
#76 = LOCAL_TIME ( 10, 15, 45.00000000000000000, #148 ) ;
#77 = ADVANCED_FACE ( 'NONE', ( #82 ), #144, .T. ) ;
#78 = AXIS2_PLACEMENT_3D ( 'NONE', #190, #95, #13 ) ;
#79 = AXIS2_PLACEMENT_3D ( 'NONE', #183, #34, #171 ) ;
#80 = DIRECTION ( 'NONE',  ( -4.275831445896958607E-31, -1.000000000000000000, -1.224646799147353207E-16 ) ) ;
#81 = VERTEX_POINT ( 'NONE', #130 ) ;
#82 = FACE_OUTER_BOUND ( 'NONE', #112, .T. ) ;
#83 = DIRECTION ( 'NONE',  ( -3.491481338843133355E-15, 1.224646799147353207E-16, -1.000000000000000000 ) ) ;
#84 = PERSON_AND_ORGANIZATION ( #24, #22 ) ;
#85 = DIRECTION ( 'NONE',  ( -4.237045877651918877E-31, -1.000000000000000000, -1.192622389734054877E-16 ) ) ;
#86 = CARTESIAN_POINT ( 'NONE',  ( 0.0000000000000000000, 0.0000000000000000000, 0.0000000000000000000 ) ) ;
#87 = FACE_BOUND ( 'NONE', #167, .T. ) ;
#88 = SHAPE_DEFINITION_REPRESENTATION ( #152, #45 ) ;
#89 = EDGE_CURVE ( 'NONE', #142, #142, #219, .T. ) ;
#90 = LOCAL_TIME ( 10, 15, 45.00000000000000000, #70 ) ;
#91 = CIRCLE ( 'NONE', #28, 4.500000000000005329 ) ;
#92 = DIRECTION ( 'NONE',  ( 0.0000000000000000000, 0.0000000000000000000, 1.000000000000000000 ) ) ;
#93 = PLANE ( 'NONE',  #206 ) ;
#94 = AXIS2_PLACEMENT_3D ( 'NONE', #162, #43, #119 ) ;
#95 = DIRECTION ( 'NONE',  ( -3.491481338843133355E-15, 1.224646799147353207E-16, -1.000000000000000000 ) ) ;
#96 = CARTESIAN_POINT ( 'NONE',  ( 2.513866563967055511E-13, -8.817456953860940133E-15, 71.99999999999998579 ) ) ;
#97 = DIRECTION ( 'NONE',  ( 1.000000000000000000, 0.0000000000000000000, 0.0000000000000000000 ) ) ;
#98 = DIRECTION ( 'NONE',  ( 4.275831445896958607E-31, 1.000000000000000000, 1.224646799147353207E-16 ) ) ;
#99 = APPROVAL ( #170, 'UNSPECIFIED' ) ;
#100 = FACE_OUTER_BOUND ( 'NONE', #31, .T. ) ;
#101 = ORIENTED_EDGE ( 'NONE', *, *, #26, .T. ) ;
#102 = CC_DESIGN_DATE_AND_TIME_ASSIGNMENT ( #132, #203, ( #202 ) ) ;
#103 = PERSON_AND_ORGANIZATION ( #24, #22 ) ;
#104 = PLANE ( 'NONE',  #66 ) ;
#105 = PERSON_AND_ORGANIZATION ( #24, #22 ) ;
#106 = APPROVAL ( #64, 'UNSPECIFIED' ) ;
#107 = FACE_BOUND ( 'NONE', #118, .T. ) ;
#108 = ORIENTED_EDGE ( 'NONE', *, *, #89, .T. ) ;
#109 = AXIS2_PLACEMENT_3D ( 'NONE', #86, #5, #98 ) ;
#110 = PRODUCT_DEFINITION_FORMATION_WITH_SPECIFIED_SOURCE ( 'ANY', '', #20, .NOT_KNOWN. ) ;
#111 = CARTESIAN_POINT ( 'NONE',  ( 2.513866563967055511E-13, 4.499999999999997335, 71.99999999999998579 ) ) ;
#112 = EDGE_LOOP ( 'NONE', ( #151 ) ) ;
#113 = COORDINATED_UNIVERSAL_TIME_OFFSET ( 1, 0, .AHEAD. ) ;
#114 = DIRECTION ( 'NONE',  ( -4.237045877651918877E-31, -1.000000000000000000, -1.192622389734054877E-16 ) ) ;
#115 = EDGE_LOOP ( 'NONE', ( #127 ) ) ;
#116 = ORIENTED_EDGE ( 'NONE', *, *, #169, .T. ) ;
#117 = APPROVAL_DATE_TIME ( #60, #207 ) ;
#118 = EDGE_LOOP ( 'NONE', ( #108 ) ) ;
#119 = DIRECTION ( 'NONE',  ( -4.191883672903289796E-31, -1.000000000000000000, -1.200603201359863958E-16 ) ) ;
#120 = DATE_AND_TIME ( #222, #65 ) ;
#121 = APPROVAL_DATE_TIME ( #172, #106 ) ;
#122 = ADVANCED_FACE ( 'NONE', ( #187 ), #104, .F. ) ;
#123 = CARTESIAN_POINT ( 'NONE',  ( 0.0000000000000000000, 0.0000000000000000000, 0.0000000000000000000 ) ) ;
#124 = ADVANCED_FACE ( 'NONE', ( #150, #191 ), #143, .T. ) ;
#125 = AXIS2_PLACEMENT_3D ( 'NONE', #69, #8, #114 ) ;
#126 = FACE_OUTER_BOUND ( 'NONE', #115, .T. ) ;
#127 = ORIENTED_EDGE ( 'NONE', *, *, #89, .F. ) ;
#128 = MECHANICAL_CONTEXT ( 'NONE', #140, 'mechanical' ) ;
#129 = CIRCLE ( 'NONE', #46, 5.000000000000000000 ) ;
#130 = CARTESIAN_POINT ( 'NONE',  ( 7.681258945454893382E-14, 4.999999999999997335, 22.00000000000000000 ) ) ;
#131 = ADVANCED_FACE ( 'NONE', ( #147 ), #217, .F. ) ;
#132 = DATE_AND_TIME ( #181, #30 ) ;
#133 = ORIENTED_EDGE ( 'NONE', *, *, #49, .F. ) ;
#134 = AXIS2_PLACEMENT_3D ( 'NONE', #10, #218, #85 ) ;
#135 = DIRECTION ( 'NONE',  ( -3.491481338843133355E-15, 1.224646799147353207E-16, -1.000000000000000000 ) ) ;
#136 = COORDINATED_UNIVERSAL_TIME_OFFSET ( 1, 0, .AHEAD. ) ;
#137 = PERSON_AND_ORGANIZATION ( #24, #22 ) ;
#138 = CC_DESIGN_APPROVAL ( #106, ( #11 ) ) ;
#139 =( GEOMETRIC_REPRESENTATION_CONTEXT ( 3 ) GLOBAL_UNCERTAINTY_ASSIGNED_CONTEXT ( ( #3 ) ) GLOBAL_UNIT_ASSIGNED_CONTEXT ( ( #27, #166, #52 ) ) REPRESENTATION_CONTEXT ( 'NONE', 'WORKASPACE' ) );
#140 = APPLICATION_CONTEXT ( 'configuration controlled 3d designs of mechanical parts and assemblies' ) ;
#141 = AXIS2_PLACEMENT_3D ( 'NONE', #123, #92, #97 ) ;
#142 = VERTEX_POINT ( 'NONE', #211 ) ;
#143 = CYLINDRICAL_SURFACE ( 'NONE', #109, 5.000000000000000000 ) ;
#144 = PLANE ( 'NONE',  #158 ) ;
#145 = APPROVAL_PERSON_ORGANIZATION ( #168, #207, #184 ) ;
#146 = APPLICATION_PROTOCOL_DEFINITION ( 'international standard', 'config_control_design', 1994, #47 ) ;
#147 = FACE_OUTER_BOUND ( 'NONE', #198, .T. ) ;
#148 = COORDINATED_UNIVERSAL_TIME_OFFSET ( 1, 0, .AHEAD. ) ;
#149 = PERSON_AND_ORGANIZATION_ROLE ( 'design_owner' ) ;
#150 = FACE_OUTER_BOUND ( 'NONE', #61, .T. ) ;
#151 = ORIENTED_EDGE ( 'NONE', *, *, #169, .F. ) ;
#152 = PRODUCT_DEFINITION_SHAPE ( 'NONE', 'NONE',  #202 ) ;
#153 = LOCAL_TIME ( 10, 15, 45.00000000000000000, #163 ) ;
#154 = PERSON_AND_ORGANIZATION ( #24, #22 ) ;
#155 = ADVANCED_FACE ( 'NONE', ( #100, #32 ), #50, .T. ) ;
#156 = CC_DESIGN_PERSON_AND_ORGANIZATION_ASSIGNMENT ( #84, #9, ( #11 ) ) ;
#157 = CARTESIAN_POINT ( 'NONE',  ( -1.068957861474239564E-30, 3.749399456654644020E-32, -3.061616997868383141E-16 ) ) ;
#158 = AXIS2_PLACEMENT_3D ( 'NONE', #68, #192, #180 ) ;
#159 = DIRECTION ( 'NONE',  ( 4.275831445896958607E-31, 1.000000000000000000, 1.224646799147353207E-16 ) ) ;
#160 = DIRECTION ( 'NONE',  ( -3.491481338843133355E-15, 1.224646799147353207E-16, -1.000000000000000000 ) ) ;
#161 = CARTESIAN_POINT ( 'NONE',  ( 2.496409157272839907E-13, -8.756224613903572559E-15, 71.49999999999998579 ) ) ;
#162 = CARTESIAN_POINT ( 'NONE',  ( -2.090050528147993795E-30, 7.186982004405597448E-32, -5.986142629192773033E-16 ) ) ;
#163 = COORDINATED_UNIVERSAL_TIME_OFFSET ( 1, 0, .AHEAD. ) ;
#164 = EDGE_LOOP ( 'NONE', ( #59 ) ) ;
#165 = APPROVAL_PERSON_ORGANIZATION ( #154, #106, #58 ) ;
#166 =( NAMED_UNIT ( * ) PLANE_ANGLE_UNIT ( ) SI_UNIT ( $, .RADIAN. ) );
#167 = EDGE_LOOP ( 'NONE', ( #185 ) ) ;
#168 = PERSON_AND_ORGANIZATION ( #24, #22 ) ;
#169 = EDGE_CURVE ( 'NONE', #36, #36, #55, .T. ) ;
#170 = APPROVAL_STATUS ( 'not_yet_approved' ) ;
#171 = DIRECTION ( 'NONE',  ( 0.0000000000000000000, 1.000000000000000000, 0.0000000000000000000 ) ) ;
#172 = DATE_AND_TIME ( #214, #76 ) ;
#173 = AXIS2_PLACEMENT_3D ( 'NONE', #179, #194, #159 ) ;
#174 = ADVANCED_FACE ( 'NONE', ( #107, #25 ), #220, .T. ) ;
#175 = CC_DESIGN_SECURITY_CLASSIFICATION ( #11, ( #110 ) ) ;
#176 = CARTESIAN_POINT ( 'NONE',  ( 7.681258945454893382E-14, 3.749399456654640188E-32, 22.00000000000000000 ) ) ;
#177 = APPLICATION_PROTOCOL_DEFINITION ( 'international standard', 'config_control_design', 1994, #140 ) ;
#178 = DIRECTION ( 'NONE',  ( 0.0000000000000000000, 1.000000000000000000, 0.0000000000000000000 ) ) ;
#179 = CARTESIAN_POINT ( 'NONE',  ( 0.0000000000000000000, 0.0000000000000000000, 0.0000000000000000000 ) ) ;
#180 = DIRECTION ( 'NONE',  ( -4.275831445896958607E-31, -1.000000000000000000, -1.224646799147353207E-16 ) ) ;
#181 = CALENDAR_DATE ( 2021, 16, 11 ) ;
#182 = VERTEX_POINT ( 'NONE', #2 ) ;
#183 = CARTESIAN_POINT ( 'NONE',  ( 2.496409157272839907E-13, -8.756224613903572559E-15, 71.49999999999998579 ) ) ;
#184 = APPROVAL_ROLE ( '' ) ;
#185 = ORIENTED_EDGE ( 'NONE', *, *, #49, .T. ) ;
#186 = ADVANCED_FACE ( 'NONE', ( #126 ), #93, .T. ) ;
#187 = FACE_OUTER_BOUND ( 'NONE', #16, .T. ) ;
#188 = CONICAL_SURFACE ( 'NONE', #79, 4.999999999999999112, 0.7853981633974415066 ) ;
#189 = CC_DESIGN_PERSON_AND_ORGANIZATION_ASSIGNMENT ( #40, #193, ( #202 ) ) ;
#190 = CARTESIAN_POINT ( 'NONE',  ( 7.681258945454893382E-14, -2.694222958124176809E-15, 22.00000000000000000 ) ) ;
#191 = FACE_OUTER_BOUND ( 'NONE', #57, .T. ) ;
#192 = DIRECTION ( 'NONE',  ( 3.491481338843133355E-15, -1.224646799147353207E-16, 1.000000000000000000 ) ) ;
#193 = PERSON_AND_ORGANIZATION_ROLE ( 'creator' ) ;
#194 = DIRECTION ( 'NONE',  ( -3.491481338843133355E-15, 1.224646799147353207E-16, -1.000000000000000000 ) ) ;
#195 = ORIENTED_EDGE ( 'NONE', *, *, #223, .F. ) ;
#196 = DIRECTION ( 'NONE',  ( 4.275831445896958607E-31, 1.000000000000000000, 1.224646799147353207E-16 ) ) ;
#197 = SECURITY_CLASSIFICATION_LEVEL ( 'unclassified' ) ;
#198 = EDGE_LOOP ( 'NONE', ( #101 ) ) ;
#199 = CALENDAR_DATE ( 2021, 16, 11 ) ;
#200 = DATE_AND_TIME ( #15, #153 ) ;
#201 = ORIENTED_EDGE ( 'NONE', *, *, #223, .T. ) ;
#202 = PRODUCT_DEFINITION ( 'UNKNOWN', '', #110, #29 ) ;
#203 = DATE_TIME_ROLE ( 'creation_date' ) ;
#204 = CARTESIAN_POINT ( 'NONE',  ( 2.513866563967055511E-13, 1.733283436918505405E-30, 71.99999999999998579 ) ) ;
#205 = PERSON_AND_ORGANIZATION_ROLE ( 'creator' ) ;
#206 = AXIS2_PLACEMENT_3D ( 'NONE', #157, #54, #196 ) ;
#207 = APPROVAL ( #72, 'UNSPECIFIED' ) ;
#208 = AXIS2_PLACEMENT_3D ( 'NONE', #161, #83, #213 ) ;
#209 = VERTEX_POINT ( 'NONE', #33 ) ;
#210 = CC_DESIGN_PERSON_AND_ORGANIZATION_ASSIGNMENT ( #105, #221, ( #110 ) ) ;
#211 = CARTESIAN_POINT ( 'NONE',  ( -4.180101056295987589E-30, -4.985945916529761490, -1.197228525838554607E-15 ) ) ;
#212 = CIRCLE ( 'NONE', #208, 4.999999999999999112 ) ;
#213 = DIRECTION ( 'NONE',  ( 0.0000000000000000000, 1.000000000000000000, 0.0000000000000000000 ) ) ;
#214 = CALENDAR_DATE ( 2021, 16, 11 ) ;
#215 = ORIENTED_EDGE ( 'NONE', *, *, #21, .T. ) ;
#216 = PERSON_AND_ORGANIZATION ( #24, #22 ) ;
#217 = PLANE ( 'NONE',  #17 ) ;
#218 = DIRECTION ( 'NONE',  ( 3.491481338843133355E-15, -1.200603201359864205E-16, 1.000000000000000000 ) ) ;
#219 = CIRCLE ( 'NONE', #94, 4.985945916529761490 ) ;
#220 = CONICAL_SURFACE ( 'NONE', #125, 5.000000000000000000, 0.1396263401595435327 ) ;
#221 = PERSON_AND_ORGANIZATION_ROLE ( 'design_supplier' ) ;
#222 = CALENDAR_DATE ( 2021, 16, 11 ) ;
#223 = EDGE_CURVE ( 'NONE', #209, #209, #212, .T. ) ;
ENDSEC;
END-ISO-10303-21;
