ISO-10303-21;
HEADER;
FILE_DESCRIPTION (( 'STEP AP203' ),
    '1' );
FILE_NAME ('968681.step',
    '2021-11-16T09:15:44',
    ( '' ),
    ( '' ),
    'SwSTEP 2.0',
    'SolidWorks 2019',
    '' );
FILE_SCHEMA (( 'CONFIG_CONTROL_DESIGN' ));
ENDSEC;

DATA;
#1 = CC_DESIGN_PERSON_AND_ORGANIZATION_ASSIGNMENT ( #57, #159, ( #17 ) ) ;
#2 = PERSON_AND_ORGANIZATION_ROLE ( 'classification_officer' ) ;
#3 = DIRECTION ( 'NONE',  ( 3.491481338843133355E-15, -1.224646799147353207E-16, 1.000000000000000000 ) ) ;
#4 = LOCAL_TIME ( 10, 15, 44.00000000000000000, #219 ) ;
#5 = PERSON_AND_ORGANIZATION_ROLE ( 'creator' ) ;
#6 = CARTESIAN_POINT ( 'NONE',  ( 6.633814543801952113E-14, -2.326828918379970970E-15, 19.00000000000000000 ) ) ;
#7 = EDGE_CURVE ( 'NONE', #162, #162, #109, .T. ) ;
#8 = VERTEX_POINT ( 'NONE', #80 ) ;
#9 = EDGE_LOOP ( 'NONE', ( #11 ) ) ;
#10 = CARTESIAN_POINT ( 'NONE',  ( -3.319270287721843689E-30, -3.985945916529761046, -9.506767946299978907E-16 ) ) ;
#11 = ORIENTED_EDGE ( 'NONE', *, *, #7, .T. ) ;
#12 = ADVANCED_FACE ( 'NONE', ( #169, #22 ), #194, .T. ) ;
#13 = ADVANCED_FACE ( 'NONE', ( #79, #125 ), #91, .T. ) ;
#14 = CARTESIAN_POINT ( 'NONE',  ( 6.633814543801952113E-14, 3.999999999999997335, 19.00000000000000000 ) ) ;
#15 = APPLICATION_CONTEXT ( 'configuration controlled 3d designs of mechanical parts and assemblies' ) ;
#16 = MECHANICAL_CONTEXT ( 'NONE', #15, 'mechanical' ) ;
#17 = PRODUCT_DEFINITION_FORMATION_WITH_SPECIFIED_SOURCE ( 'ANY', '', #55, .NOT_KNOWN. ) ;
#18 = CC_DESIGN_APPROVAL ( #187, ( #17 ) ) ;
#19 =( NAMED_UNIT ( * ) SI_UNIT ( $, .STERADIAN. ) SOLID_ANGLE_UNIT ( ) );
#20 = DIRECTION ( 'NONE',  ( 1.000000000000000000, 0.0000000000000000000, 0.0000000000000000000 ) ) ;
#21 = CLOSED_SHELL ( 'NONE', ( #12, #56, #13, #34 ) ) ;
#22 = FACE_OUTER_BOUND ( 'NONE', #200, .T. ) ;
#23 = ADVANCED_FACE ( 'NONE', ( #193, #210 ), #133, .T. ) ;
#24 = AXIS2_PLACEMENT_3D ( 'NONE', #214, #126, #113 ) ;
#25 = CARTESIAN_POINT ( 'NONE',  ( 6.633814543801952113E-14, 2.999519565323711931E-32, 19.00000000000000000 ) ) ;
#26 = COORDINATED_UNIVERSAL_TIME_OFFSET ( 1, 0, .AHEAD. ) ;
#27 = FACE_OUTER_BOUND ( 'NONE', #65, .T. ) ;
#28 = CC_DESIGN_SECURITY_CLASSIFICATION ( #42, ( #17 ) ) ;
#29 = PLANE ( 'NONE',  #151 ) ;
#30 = APPLICATION_CONTEXT ( 'configuration controlled 3d designs of mechanical parts and assemblies' ) ;
#31 = AXIS2_PLACEMENT_3D ( 'NONE', #47, #180, #163 ) ;
#32 = DIRECTION ( 'NONE',  ( 3.491481338843133355E-15, -1.200603201359864205E-16, 1.000000000000000000 ) ) ;
#33 = EDGE_LOOP ( 'NONE', ( #144 ) ) ;
#34 = ADVANCED_FACE ( 'NONE', ( #27 ), #29, .T. ) ;
#35 = DIRECTION ( 'NONE',  ( 0.0000000000000000000, 0.0000000000000000000, 1.000000000000000000 ) ) ;
#36 = DIRECTION ( 'NONE',  ( 3.491481338843133355E-15, -1.224646799147353207E-16, 1.000000000000000000 ) ) ;
#37 = EDGE_CURVE ( 'NONE', #166, #166, #188, .T. ) ;
#38 = CARTESIAN_POINT ( 'NONE',  ( 6.633814543801952113E-14, -2.326828918379970970E-15, 19.00000000000000000 ) ) ;
#39 = FACE_OUTER_BOUND ( 'NONE', #116, .T. ) ;
#40 = DIRECTION ( 'NONE',  ( 3.491481338843133355E-15, -1.200603201359864205E-16, 1.000000000000000000 ) ) ;
#41 = AXIS2_PLACEMENT_3D ( 'NONE', #177, #78, #94 ) ;
#42 = SECURITY_CLASSIFICATION ( '', '', #222 ) ;
#43 = ORIENTED_EDGE ( 'NONE', *, *, #7, .F. ) ;
#44 = CC_DESIGN_PERSON_AND_ORGANIZATION_ASSIGNMENT ( #168, #148, ( #198 ) ) ;
#45 = ADVANCED_BREP_SHAPE_REPRESENTATION ( '968681', ( #170, #101, #69 ), #197 ) ;
#46 = EDGE_LOOP ( 'NONE', ( #99 ) ) ;
#47 = CARTESIAN_POINT ( 'NONE',  ( 2.182175836776958789E-13, -7.654042494670959381E-15, 62.50000000000001421 ) ) ;
#48 = EDGE_CURVE ( 'NONE', #83, #83, #63, .T. ) ;
#49 = ORIENTED_EDGE ( 'NONE', *, *, #196, .F. ) ;
#50 = COORDINATED_UNIVERSAL_TIME_OFFSET ( 1, 0, .AHEAD. ) ;
#51 = CIRCLE ( 'NONE', #111, 4.000000000000000000 ) ;
#52 = DATE_AND_TIME ( #201, #4 ) ;
#53 = APPROVAL_ROLE ( '' ) ;
#54 = PERSON_AND_ORGANIZATION_ROLE ( 'design_owner' ) ;
#55 = PRODUCT ( '968681', '968681', '', ( #16 ) ) ;
#56 = ADVANCED_FACE ( 'NONE', ( #191 ), #58, .T. ) ;
#57 = PERSON_AND_ORGANIZATION ( #182, #192 ) ;
#58 = PLANE ( 'NONE',  #81 ) ;
#59 = CARTESIAN_POINT ( 'NONE',  ( 0.0000000000000000000, 0.0000000000000000000, 0.0000000000000000000 ) ) ;
#60 = CYLINDRICAL_SURFACE ( 'NONE', #24, 3.999999999999998224 ) ;
#61 = EDGE_CURVE ( 'NONE', #128, #128, #218, .T. ) ;
#62 = DATE_TIME_ROLE ( 'classification_date' ) ;
#63 = CIRCLE ( 'NONE', #103, 3.985945916529761046 ) ;
#64 = ORIENTED_EDGE ( 'NONE', *, *, #196, .T. ) ;
#65 = EDGE_LOOP ( 'NONE', ( #131 ) ) ;
#66 = EDGE_LOOP ( 'NONE', ( #165 ) ) ;
#67 = APPLICATION_PROTOCOL_DEFINITION ( 'international standard', 'config_control_design', 1994, #30 ) ;
#68 = ADVANCED_FACE ( 'NONE', ( #136 ), #204, .F. ) ;
#69 = AXIS2_PLACEMENT_3D ( 'NONE', #189, #35, #20 ) ;
#70 = APPLICATION_PROTOCOL_DEFINITION ( 'international standard', 'config_control_design', 1994, #15 ) ;
#71 = APPROVAL ( #157, 'UNSPECIFIED' ) ;
#72 = COORDINATED_UNIVERSAL_TIME_OFFSET ( 1, 0, .AHEAD. ) ;
#73 =( NAMED_UNIT ( * ) PLANE_ANGLE_UNIT ( ) SI_UNIT ( $, .RADIAN. ) );
#74 = DIRECTION ( 'NONE',  ( 0.0000000000000000000, 1.000000000000000000, 0.0000000000000000000 ) ) ;
#75 = UNCERTAINTY_MEASURE_WITH_UNIT (LENGTH_MEASURE( 1.000000000000000082E-05 ), #217, 'distance_accuracy_value', 'NONE');
#76 = DIRECTION ( 'NONE',  ( -4.275831445896958607E-31, -1.000000000000000000, -1.224646799147353207E-16 ) ) ;
#77 = AXIS2_PLACEMENT_3D ( 'NONE', #199, #117, #107 ) ;
#78 = DIRECTION ( 'NONE',  ( -3.491481338843133355E-15, 1.224646799147353207E-16, -1.000000000000000000 ) ) ;
#79 = FACE_BOUND ( 'NONE', #46, .T. ) ;
#80 = CARTESIAN_POINT ( 'NONE',  ( 2.182175836776958789E-13, 3.999999999999989786, 62.50000000000001421 ) ) ;
#81 = AXIS2_PLACEMENT_3D ( 'NONE', #25, #36, #104 ) ;
#82 = EDGE_LOOP ( 'NONE', ( #145 ) ) ;
#83 = VERTEX_POINT ( 'NONE', #10 ) ;
#84 = PERSON_AND_ORGANIZATION ( #182, #192 ) ;
#85 = CC_DESIGN_DATE_AND_TIME_ASSIGNMENT ( #52, #149, ( #198 ) ) ;
#86 = LOCAL_TIME ( 10, 15, 44.00000000000000000, #50 ) ;
#87 = PERSON_AND_ORGANIZATION ( #182, #192 ) ;
#88 = APPROVAL_STATUS ( 'not_yet_approved' ) ;
#89 = CLOSED_SHELL ( 'NONE', ( #114, #123, #23, #68 ) ) ;
#90 = DIRECTION ( 'NONE',  ( 4.275831445896958607E-31, 1.000000000000000000, 1.224646799147353207E-16 ) ) ;
#91 = CONICAL_SURFACE ( 'NONE', #110, 4.000000000000000000, 0.1396263401595435050 ) ;
#92 = COORDINATED_UNIVERSAL_TIME_OFFSET ( 1, 0, .AHEAD. ) ;
#93 = DIRECTION ( 'NONE',  ( -3.491481338843133355E-15, 1.224646799147353207E-16, -1.000000000000000000 ) ) ;
#94 = DIRECTION ( 'NONE',  ( 0.0000000000000000000, 1.000000000000000000, 0.0000000000000000000 ) ) ;
#95 = CIRCLE ( 'NONE', #31, 3.999999999999997335 ) ;
#96 = CC_DESIGN_APPROVAL ( #71, ( #42 ) ) ;
#97 = DIRECTION ( 'NONE',  ( -4.191883672903290672E-31, -1.000000000000000000, -1.200603201359864205E-16 ) ) ;
#98 = PRODUCT_DEFINITION_SHAPE ( 'NONE', 'NONE',  #198 ) ;
#99 = ORIENTED_EDGE ( 'NONE', *, *, #48, .T. ) ;
#100 = DIRECTION ( 'NONE',  ( -4.212971753347078429E-31, -1.000000000000000000, -1.185846126156020475E-16 ) ) ;
#101 = MANIFOLD_SOLID_BREP ( 'Corps-Déplacer/Copier1[2]', #21 ) ;
#102 = APPROVAL_DATE_TIME ( #134, #142 ) ;
#103 = AXIS2_PLACEMENT_3D ( 'NONE', #106, #161, #97 ) ;
#104 = DIRECTION ( 'NONE',  ( -4.275831445896958607E-31, -1.000000000000000000, -1.224646799147353207E-16 ) ) ;
#105 = LOCAL_TIME ( 10, 15, 44.00000000000000000, #92 ) ;
#106 = CARTESIAN_POINT ( 'NONE',  ( -1.648408126864179224E-30, 5.668322073623053824E-32, -4.721228518467070572E-16 ) ) ;
#107 = DIRECTION ( 'NONE',  ( 0.0000000000000000000, 1.000000000000000000, 0.0000000000000000000 ) ) ;
#108 = DIRECTION ( 'NONE',  ( 0.0000000000000000000, 1.000000000000000000, 0.0000000000000000000 ) ) ;
#109 = CIRCLE ( 'NONE', #77, 3.500000000000011102 ) ;
#110 = AXIS2_PLACEMENT_3D ( 'NONE', #190, #40, #223 ) ;
#111 = AXIS2_PLACEMENT_3D ( 'NONE', #115, #32, #100 ) ;
#112 = LOCAL_TIME ( 10, 15, 44.00000000000000000, #26 ) ;
#113 = DIRECTION ( 'NONE',  ( 4.275831445896958607E-31, 1.000000000000000000, 1.224646799147353207E-16 ) ) ;
#114 = ADVANCED_FACE ( 'NONE', ( #39 ), #176, .F. ) ;
#115 = CARTESIAN_POINT ( 'NONE',  ( 3.491481338843117578E-16, -1.200603201359858658E-17, 0.09999999999999954758 ) ) ;
#116 = EDGE_LOOP ( 'NONE', ( #179 ) ) ;
#117 = DIRECTION ( 'NONE',  ( -3.491481338843133355E-15, 1.224646799147353207E-16, -1.000000000000000000 ) ) ;
#118 = PERSON_AND_ORGANIZATION ( #182, #192 ) ;
#119 = PERSON_AND_ORGANIZATION ( #182, #192 ) ;
#120 = PERSON_AND_ORGANIZATION ( #182, #192 ) ;
#121 = CARTESIAN_POINT ( 'NONE',  ( -8.551662891793915461E-31, 2.999519565323715216E-32, -2.449293598294706414E-16 ) ) ;
#122 = ORIENTED_EDGE ( 'NONE', *, *, #155, .F. ) ;
#123 = ADVANCED_FACE ( 'NONE', ( #140, #209 ), #60, .T. ) ;
#124 = APPROVAL_PERSON_ORGANIZATION ( #87, #142, #184 ) ;
#125 = FACE_OUTER_BOUND ( 'NONE', #181, .T. ) ;
#126 = DIRECTION ( 'NONE',  ( -3.491481338843133355E-15, 1.224646799147353207E-16, -1.000000000000000000 ) ) ;
#127 = AXIS2_PLACEMENT_3D ( 'NONE', #6, #221, #108 ) ;
#128 = VERTEX_POINT ( 'NONE', #178 ) ;
#129 = EDGE_LOOP ( 'NONE', ( #122 ) ) ;
#130 = AXIS2_PLACEMENT_3D ( 'NONE', #59, #173, #90 ) ;
#131 = ORIENTED_EDGE ( 'NONE', *, *, #48, .F. ) ;
#132 = APPROVAL_STATUS ( 'not_yet_approved' ) ;
#133 = CONICAL_SURFACE ( 'NONE', #41, 3.999999999999997335, 0.7853981633974482790 ) ;
#134 = DATE_AND_TIME ( #186, #86 ) ;
#135 = DATE_AND_TIME ( #215, #172 ) ;
#136 = FACE_OUTER_BOUND ( 'NONE', #212, .T. ) ;
#137 = APPROVAL_ROLE ( '' ) ;
#138 = DIRECTION ( 'NONE',  ( -3.491481338843133355E-15, 1.224646799147353207E-16, -1.000000000000000000 ) ) ;
#139 = APPROVAL_PERSON_ORGANIZATION ( #119, #187, #53 ) ;
#140 = FACE_OUTER_BOUND ( 'NONE', #216, .T. ) ;
#141 = DATE_AND_TIME ( #152, #112 ) ;
#142 = APPROVAL ( #132, 'UNSPECIFIED' ) ;
#143 = VERTEX_POINT ( 'NONE', #211 ) ;
#144 = ORIENTED_EDGE ( 'NONE', *, *, #61, .F. ) ;
#145 = ORIENTED_EDGE ( 'NONE', *, *, #37, .F. ) ;
#146 = ORIENTED_EDGE ( 'NONE', *, *, #155, .T. ) ;
#147 = CC_DESIGN_PERSON_AND_ORGANIZATION_ASSIGNMENT ( #118, #5, ( #17 ) ) ;
#148 = PERSON_AND_ORGANIZATION_ROLE ( 'creator' ) ;
#149 = DATE_TIME_ROLE ( 'creation_date' ) ;
#150 = PERSON_AND_ORGANIZATION ( #182, #192 ) ;
#151 = AXIS2_PLACEMENT_3D ( 'NONE', #121, #154, #160 ) ;
#152 = CALENDAR_DATE ( 2021, 16, 11 ) ;
#153 = APPROVAL_PERSON_ORGANIZATION ( #150, #71, #137 ) ;
#154 = DIRECTION ( 'NONE',  ( -3.491481338843133355E-15, 1.224646799147353207E-16, -1.000000000000000000 ) ) ;
#155 = EDGE_CURVE ( 'NONE', #8, #8, #95, .T. ) ;
#156 = CARTESIAN_POINT ( 'NONE',  ( 2.199633243471174140E-13, 2.624579619658247529E-32, 63.00000000000000000 ) ) ;
#157 = APPROVAL_STATUS ( 'not_yet_approved' ) ;
#158 = CARTESIAN_POINT ( 'NONE',  ( 6.633814543801952113E-14, 2.999519565323711931E-32, 19.00000000000000000 ) ) ;
#159 = PERSON_AND_ORGANIZATION_ROLE ( 'design_supplier' ) ;
#160 = DIRECTION ( 'NONE',  ( 4.275831445896958607E-31, 1.000000000000000000, 1.224646799147353207E-16 ) ) ;
#161 = DIRECTION ( 'NONE',  ( 3.491481338843133355E-15, -1.200603201359864205E-16, 1.000000000000000000 ) ) ;
#162 = VERTEX_POINT ( 'NONE', #195 ) ;
#163 = DIRECTION ( 'NONE',  ( 0.0000000000000000000, 1.000000000000000000, 0.0000000000000000000 ) ) ;
#164 = AXIS2_PLACEMENT_3D ( 'NONE', #158, #3, #76 ) ;
#165 = ORIENTED_EDGE ( 'NONE', *, *, #61, .T. ) ;
#166 = VERTEX_POINT ( 'NONE', #14 ) ;
#167 = PRODUCT_RELATED_PRODUCT_CATEGORY ( 'detail', '', ( #55 ) ) ;
#168 = PERSON_AND_ORGANIZATION ( #182, #192 ) ;
#169 = FACE_OUTER_BOUND ( 'NONE', #66, .T. ) ;
#170 = MANIFOLD_SOLID_BREP ( 'Corps-Déplacer/Copier1[1]', #89 ) ;
#171 = AXIS2_PLACEMENT_3D ( 'NONE', #156, #138, #206 ) ;
#172 = LOCAL_TIME ( 10, 15, 44.00000000000000000, #72 ) ;
#173 = DIRECTION ( 'NONE',  ( -3.491481338843133355E-15, 1.224646799147353207E-16, -1.000000000000000000 ) ) ;
#174 = DESIGN_CONTEXT ( 'detailed design', #30, 'design' ) ;
#175 = DATE_AND_TIME ( #220, #105 ) ;
#176 = PLANE ( 'NONE',  #164 ) ;
#177 = CARTESIAN_POINT ( 'NONE',  ( 2.182175836776958789E-13, -7.654042494670959381E-15, 62.50000000000001421 ) ) ;
#178 = CARTESIAN_POINT ( 'NONE',  ( 6.633814543801952113E-14, 3.999999999999997335, 19.00000000000000000 ) ) ;
#179 = ORIENTED_EDGE ( 'NONE', *, *, #37, .T. ) ;
#180 = DIRECTION ( 'NONE',  ( -3.491481338843133355E-15, 1.224646799147353207E-16, -1.000000000000000000 ) ) ;
#181 = EDGE_LOOP ( 'NONE', ( #49 ) ) ;
#182 = PERSON ( 'UNSPECIFIED', 'UNSPECIFIED', 'UNSPECIFIED', ('UNSPECIFIED'), ('UNSPECIFIED'), ('UNSPECIFIED') ) ;
#183 = CC_DESIGN_PERSON_AND_ORGANIZATION_ASSIGNMENT ( #84, #54, ( #55 ) ) ;
#184 = APPROVAL_ROLE ( '' ) ;
#185 = AXIS2_PLACEMENT_3D ( 'NONE', #38, #93, #74 ) ;
#186 = CALENDAR_DATE ( 2021, 16, 11 ) ;
#187 = APPROVAL ( #88, 'UNSPECIFIED' ) ;
#188 = CIRCLE ( 'NONE', #127, 4.000000000000000000 ) ;
#189 = CARTESIAN_POINT ( 'NONE',  ( 0.0000000000000000000, 0.0000000000000000000, 0.0000000000000000000 ) ) ;
#190 = CARTESIAN_POINT ( 'NONE',  ( 3.491481338843117578E-16, -1.200603201359858658E-17, 0.09999999999999954758 ) ) ;
#191 = FACE_OUTER_BOUND ( 'NONE', #33, .T. ) ;
#192 = ORGANIZATION ( 'UNSPECIFIED', 'UNSPECIFIED', '' ) ;
#193 = FACE_BOUND ( 'NONE', #9, .T. ) ;
#194 = CYLINDRICAL_SURFACE ( 'NONE', #130, 4.000000000000000000 ) ;
#195 = CARTESIAN_POINT ( 'NONE',  ( 2.199633243471174140E-13, 3.500000000000003109, 63.00000000000000000 ) ) ;
#196 = EDGE_CURVE ( 'NONE', #143, #143, #51, .T. ) ;
#197 =( GEOMETRIC_REPRESENTATION_CONTEXT ( 3 ) GLOBAL_UNCERTAINTY_ASSIGNED_CONTEXT ( ( #75 ) ) GLOBAL_UNIT_ASSIGNED_CONTEXT ( ( #217, #73, #19 ) ) REPRESENTATION_CONTEXT ( 'NONE', 'WORKASPACE' ) );
#198 = PRODUCT_DEFINITION ( 'UNKNOWN', '', #17, #174 ) ;
#199 = CARTESIAN_POINT ( 'NONE',  ( 2.199633243471174140E-13, -7.715274834628325378E-15, 63.00000000000000000 ) ) ;
#200 = EDGE_LOOP ( 'NONE', ( #64 ) ) ;
#201 = CALENDAR_DATE ( 2021, 16, 11 ) ;
#202 = APPROVAL_DATE_TIME ( #135, #187 ) ;
#203 = CC_DESIGN_PERSON_AND_ORGANIZATION_ASSIGNMENT ( #120, #2, ( #42 ) ) ;
#204 = PLANE ( 'NONE',  #171 ) ;
#205 = APPROVAL_DATE_TIME ( #175, #71 ) ;
#206 = DIRECTION ( 'NONE',  ( 4.275831445896958607E-31, 1.000000000000000000, 1.224646799147353207E-16 ) ) ;
#207 = CC_DESIGN_APPROVAL ( #142, ( #198 ) ) ;
#208 = SHAPE_DEFINITION_REPRESENTATION ( #98, #45 ) ;
#209 = FACE_OUTER_BOUND ( 'NONE', #82, .T. ) ;
#210 = FACE_OUTER_BOUND ( 'NONE', #129, .T. ) ;
#211 = CARTESIAN_POINT ( 'NONE',  ( 3.491481338843100322E-16, -4.000000000000000000, 0.09999999999999907574 ) ) ;
#212 = EDGE_LOOP ( 'NONE', ( #43 ) ) ;
#213 = CC_DESIGN_DATE_AND_TIME_ASSIGNMENT ( #141, #62, ( #42 ) ) ;
#214 = CARTESIAN_POINT ( 'NONE',  ( 0.0000000000000000000, 0.0000000000000000000, 0.0000000000000000000 ) ) ;
#215 = CALENDAR_DATE ( 2021, 16, 11 ) ;
#216 = EDGE_LOOP ( 'NONE', ( #146 ) ) ;
#217 =( LENGTH_UNIT ( ) NAMED_UNIT ( * ) SI_UNIT ( .MILLI., .METRE. ) );
#218 = CIRCLE ( 'NONE', #185, 4.000000000000000000 ) ;
#219 = COORDINATED_UNIVERSAL_TIME_OFFSET ( 1, 0, .AHEAD. ) ;
#220 = CALENDAR_DATE ( 2021, 16, 11 ) ;
#221 = DIRECTION ( 'NONE',  ( -3.491481338843133355E-15, 1.224646799147353207E-16, -1.000000000000000000 ) ) ;
#222 = SECURITY_CLASSIFICATION_LEVEL ( 'unclassified' ) ;
#223 = DIRECTION ( 'NONE',  ( -4.212971753347078429E-31, -1.000000000000000000, -1.185846126156020475E-16 ) ) ;
ENDSEC;
END-ISO-10303-21;
