ISO-10303-21;
HEADER;
FILE_DESCRIPTION (( 'STEP AP203' ),
    '1' );
FILE_NAME ('968680.step',
    '2021-11-16T09:15:44',
    ( '' ),
    ( '' ),
    'SwSTEP 2.0',
    'SolidWorks 2019',
    '' );
FILE_SCHEMA (( 'CONFIG_CONTROL_DESIGN' ));
ENDSEC;

DATA;
#1 = PERSON_AND_ORGANIZATION ( #8, #91 ) ;
#2 = COORDINATED_UNIVERSAL_TIME_OFFSET ( 1, 0, .AHEAD. ) ;
#3 = CARTESIAN_POINT ( 'NONE',  ( 1.990144363140585886E-13, 8.685164181875800873E-31, 56.99999999999999289 ) ) ;
#4 = LOCAL_TIME ( 10, 15, 44.00000000000000000, #50 ) ;
#5 = FACE_OUTER_BOUND ( 'NONE', #45, .T. ) ;
#6 = APPROVAL_PERSON_ORGANIZATION ( #192, #189, #133 ) ;
#7 = DIRECTION ( 'NONE',  ( 4.275831445896959482E-31, 1.000000000000000000, 1.224646799147353207E-16 ) ) ;
#8 = PERSON ( 'UNSPECIFIED', 'UNSPECIFIED', 'UNSPECIFIED', ('UNSPECIFIED'), ('UNSPECIFIED'), ('UNSPECIFIED') ) ;
#9 = CONICAL_SURFACE ( 'NONE', #176, 2.999999999999995559, 0.7853981633974415066 ) ;
#10 = DIRECTION ( 'NONE',  ( -3.491481338843133355E-15, 1.224646799147353207E-16, -1.000000000000000000 ) ) ;
#11 = AXIS2_PLACEMENT_3D ( 'NONE', #3, #158, #111 ) ;
#12 = DIRECTION ( 'NONE',  ( 0.0000000000000000000, 1.000000000000000000, 0.0000000000000000000 ) ) ;
#13 = DATE_AND_TIME ( #73, #44 ) ;
#14 = UNCERTAINTY_MEASURE_WITH_UNIT (LENGTH_MEASURE( 1.000000000000000082E-05 ), #41, 'distance_accuracy_value', 'NONE');
#15 = MANIFOLD_SOLID_BREP ( 'Corps-Déplacer/Copier1[2]', #162 ) ;
#16 = APPROVAL_STATUS ( 'not_yet_approved' ) ;
#17 = SHAPE_DEFINITION_REPRESENTATION ( #191, #136 ) ;
#18 = LOCAL_TIME ( 10, 15, 44.00000000000000000, #2 ) ;
#19 = CC_DESIGN_PERSON_AND_ORGANIZATION_ASSIGNMENT ( #171, #34, ( #51 ) ) ;
#20 = DIRECTION ( 'NONE',  ( 0.0000000000000000000, 0.0000000000000000000, 1.000000000000000000 ) ) ;
#21 = ADVANCED_FACE ( 'NONE', ( #5 ), #195, .F. ) ;
#22 = AXIS2_PLACEMENT_3D ( 'NONE', #190, #20, #177 ) ;
#23 = DIRECTION ( 'NONE',  ( 4.275831445896958607E-31, 1.000000000000000000, 1.224646799147353207E-16 ) ) ;
#24 = CARTESIAN_POINT ( 'NONE',  ( 1.990144363140585886E-13, 2.499999999999995115, 56.99999999999999289 ) ) ;
#25 = AXIS2_PLACEMENT_3D ( 'NONE', #98, #149, #12 ) ;
#26 = CARTESIAN_POINT ( 'NONE',  ( 1.972686956446370283E-13, -6.919254415182544548E-15, 56.49999999999999289 ) ) ;
#27 = CARTESIAN_POINT ( 'NONE',  ( 4.538925740496073362E-14, -1.592040838891559095E-15, 13.00000000000000000 ) ) ;
#28 =( NAMED_UNIT ( * ) SI_UNIT ( $, .STERADIAN. ) SOLID_ANGLE_UNIT ( ) );
#29 = ORIENTED_EDGE ( 'NONE', *, *, #95, .T. ) ;
#30 = VERTEX_POINT ( 'NONE', #184 ) ;
#31 = AXIS2_PLACEMENT_3D ( 'NONE', #164, #10, #23 ) ;
#32 = EDGE_CURVE ( 'NONE', #120, #120, #96, .T. ) ;
#33 = PERSON_AND_ORGANIZATION_ROLE ( 'classification_officer' ) ;
#34 = PERSON_AND_ORGANIZATION_ROLE ( 'creator' ) ;
#35 = APPROVAL_STATUS ( 'not_yet_approved' ) ;
#36 = ORIENTED_EDGE ( 'NONE', *, *, #32, .F. ) ;
#37 = APPLICATION_PROTOCOL_DEFINITION ( 'international standard', 'config_control_design', 1994, #69 ) ;
#38 = CC_DESIGN_SECURITY_CLASSIFICATION ( #143, ( #51 ) ) ;
#39 = EDGE_CURVE ( 'NONE', #118, #118, #79, .T. ) ;
#40 = FACE_OUTER_BOUND ( 'NONE', #107, .T. ) ;
#41 =( LENGTH_UNIT ( ) NAMED_UNIT ( * ) SI_UNIT ( .MILLI., .METRE. ) );
#42 = DIRECTION ( 'NONE',  ( -3.491481338843133355E-15, 1.224646799147353207E-16, -1.000000000000000000 ) ) ;
#43 = PERSON_AND_ORGANIZATION_ROLE ( 'design_supplier' ) ;
#44 = LOCAL_TIME ( 10, 15, 44.00000000000000000, #159 ) ;
#45 = EDGE_LOOP ( 'NONE', ( #135 ) ) ;
#46 = DATE_AND_TIME ( #64, #18 ) ;
#47 = EDGE_LOOP ( 'NONE', ( #188 ) ) ;
#48 = APPROVAL_DATE_TIME ( #46, #189 ) ;
#49 = APPLICATION_CONTEXT ( 'configuration controlled 3d designs of mechanical parts and assemblies' ) ;
#50 = COORDINATED_UNIVERSAL_TIME_OFFSET ( 1, 0, .AHEAD. ) ;
#51 = PRODUCT_DEFINITION_FORMATION_WITH_SPECIFIED_SOURCE ( 'ANY', '', #198, .NOT_KNOWN. ) ;
#52 = CIRCLE ( 'NONE', #61, 3.000000000000000000 ) ;
#53 = ADVANCED_FACE ( 'NONE', ( #70, #40 ), #201, .T. ) ;
#54 = CARTESIAN_POINT ( 'NONE',  ( 4.538925740496073362E-14, 2.999999999999998224, 13.00000000000000000 ) ) ;
#55 = APPROVAL_PERSON_ORGANIZATION ( #151, #97, #66 ) ;
#56 = CC_DESIGN_PERSON_AND_ORGANIZATION_ASSIGNMENT ( #75, #43, ( #51 ) ) ;
#57 = CYLINDRICAL_SURFACE ( 'NONE', #78, 3.000000000000000000 ) ;
#58 = CARTESIAN_POINT ( 'NONE',  ( 0.0000000000000000000, 0.0000000000000000000, 0.0000000000000000000 ) ) ;
#59 = DIRECTION ( 'NONE',  ( -3.491481338843133355E-15, 1.224646799147353207E-16, -1.000000000000000000 ) ) ;
#60 = CARTESIAN_POINT ( 'NONE',  ( 0.0000000000000000000, 0.0000000000000000000, 0.0000000000000000000 ) ) ;
#61 = AXIS2_PLACEMENT_3D ( 'NONE', #84, #82, #128 ) ;
#62 = DIRECTION ( 'NONE',  ( -3.491481338843133355E-15, 1.224646799147353207E-16, -1.000000000000000000 ) ) ;
#63 = APPROVAL ( #187, 'UNSPECIFIED' ) ;
#64 = CALENDAR_DATE ( 2021, 16, 11 ) ;
#65 = AXIS2_PLACEMENT_3D ( 'NONE', #125, #59, #7 ) ;
#66 = APPROVAL_ROLE ( '' ) ;
#67 = PRODUCT_DEFINITION ( 'UNKNOWN', '', #51, #170 ) ;
#68 = EDGE_LOOP ( 'NONE', ( #174 ) ) ;
#69 = APPLICATION_CONTEXT ( 'configuration controlled 3d designs of mechanical parts and assemblies' ) ;
#70 = FACE_OUTER_BOUND ( 'NONE', #141, .T. ) ;
#71 = PLANE ( 'NONE',  #179 ) ;
#72 = PLANE ( 'NONE',  #31 ) ;
#73 = CALENDAR_DATE ( 2021, 16, 11 ) ;
#74 = EDGE_LOOP ( 'NONE', ( #104 ) ) ;
#75 = PERSON_AND_ORGANIZATION ( #8, #91 ) ;
#76 = DATE_AND_TIME ( #110, #4 ) ;
#77 = MECHANICAL_CONTEXT ( 'NONE', #49, 'mechanical' ) ;
#78 = AXIS2_PLACEMENT_3D ( 'NONE', #60, #62, #81 ) ;
#79 = CIRCLE ( 'NONE', #194, 3.000000000000000000 ) ;
#80 = DIRECTION ( 'NONE',  ( 0.0000000000000000000, 1.000000000000000000, 0.0000000000000000000 ) ) ;
#81 = DIRECTION ( 'NONE',  ( 4.275831445896959482E-31, 1.000000000000000000, 1.224646799147353207E-16 ) ) ;
#82 = DIRECTION ( 'NONE',  ( -3.491481338843133355E-15, 1.224646799147353207E-16, -1.000000000000000000 ) ) ;
#83 = DIRECTION ( 'NONE',  ( -3.491481338843133355E-15, 1.224646799147353207E-16, -1.000000000000000000 ) ) ;
#84 = CARTESIAN_POINT ( 'NONE',  ( 4.538925740496073362E-14, -1.592040838891559095E-15, 13.00000000000000000 ) ) ;
#85 = CARTESIAN_POINT ( 'NONE',  ( 4.538925740496073362E-14, 2.249639673992783675E-32, 13.00000000000000000 ) ) ;
#86 = APPROVAL_PERSON_ORGANIZATION ( #1, #63, #108 ) ;
#87 = DATE_AND_TIME ( #137, #161 ) ;
#88 = SECURITY_CLASSIFICATION_LEVEL ( 'unclassified' ) ;
#89 = EDGE_LOOP ( 'NONE', ( #154 ) ) ;
#90 = DATE_AND_TIME ( #173, #122 ) ;
#91 = ORGANIZATION ( 'UNSPECIFIED', 'UNSPECIFIED', '' ) ;
#92 = CC_DESIGN_PERSON_AND_ORGANIZATION_ASSIGNMENT ( #124, #103, ( #198 ) ) ;
#93 = APPLICATION_PROTOCOL_DEFINITION ( 'international standard', 'config_control_design', 1994, #49 ) ;
#94 = ORIENTED_EDGE ( 'NONE', *, *, #109, .F. ) ;
#95 = EDGE_CURVE ( 'NONE', #30, #30, #197, .T. ) ;
#96 = CIRCLE ( 'NONE', #65, 3.000000000000000000 ) ;
#97 = APPROVAL ( #16, 'UNSPECIFIED' ) ;
#98 = CARTESIAN_POINT ( 'NONE',  ( 1.972686956446370283E-13, -6.919254415182544548E-15, 56.49999999999999289 ) ) ;
#99 = FACE_OUTER_BOUND ( 'NONE', #140, .T. ) ;
#100 = FACE_OUTER_BOUND ( 'NONE', #47, .T. ) ;
#101 =( NAMED_UNIT ( * ) PLANE_ANGLE_UNIT ( ) SI_UNIT ( $, .RADIAN. ) );
#102 = CARTESIAN_POINT ( 'NONE',  ( 0.0000000000000000000, 3.000000000000000000, 0.0000000000000000000 ) ) ;
#103 = PERSON_AND_ORGANIZATION_ROLE ( 'design_owner' ) ;
#104 = ORIENTED_EDGE ( 'NONE', *, *, #109, .T. ) ;
#105 = APPROVAL_DATE_TIME ( #13, #63 ) ;
#106 = PERSON_AND_ORGANIZATION ( #8, #91 ) ;
#107 = EDGE_LOOP ( 'NONE', ( #121 ) ) ;
#108 = APPROVAL_ROLE ( '' ) ;
#109 = EDGE_CURVE ( 'NONE', #199, #199, #52, .T. ) ;
#110 = CALENDAR_DATE ( 2021, 16, 11 ) ;
#111 = DIRECTION ( 'NONE',  ( 4.275831445896958607E-31, 1.000000000000000000, 1.224646799147353207E-16 ) ) ;
#112 = ADVANCED_FACE ( 'NONE', ( #100 ), #72, .T. ) ;
#113 = AXIS2_PLACEMENT_3D ( 'NONE', #85, #144, #165 ) ;
#114 = CC_DESIGN_APPROVAL ( #189, ( #51 ) ) ;
#115 = CARTESIAN_POINT ( 'NONE',  ( 4.538925740496073362E-14, 2.999999999999998224, 13.00000000000000000 ) ) ;
#116 = EDGE_CURVE ( 'NONE', #166, #166, #119, .T. ) ;
#117 = PLANE ( 'NONE',  #113 ) ;
#118 = VERTEX_POINT ( 'NONE', #115 ) ;
#119 = CIRCLE ( 'NONE', #183, 2.500000000000002220 ) ;
#120 = VERTEX_POINT ( 'NONE', #102 ) ;
#121 = ORIENTED_EDGE ( 'NONE', *, *, #39, .F. ) ;
#122 = LOCAL_TIME ( 10, 15, 44.00000000000000000, #123 ) ;
#123 = COORDINATED_UNIVERSAL_TIME_OFFSET ( 1, 0, .AHEAD. ) ;
#124 = PERSON_AND_ORGANIZATION ( #8, #91 ) ;
#125 = CARTESIAN_POINT ( 'NONE',  ( -1.282749433769087757E-30, 4.499279347985572824E-32, -3.673940397442059868E-16 ) ) ;
#126 = ADVANCED_FACE ( 'NONE', ( #163 ), #117, .T. ) ;
#127 = FACE_OUTER_BOUND ( 'NONE', #157, .T. ) ;
#128 = DIRECTION ( 'NONE',  ( 0.0000000000000000000, 1.000000000000000000, 0.0000000000000000000 ) ) ;
#129 = CARTESIAN_POINT ( 'NONE',  ( 4.538925740496073362E-14, 2.249639673992783675E-32, 13.00000000000000000 ) ) ;
#130 = DIRECTION ( 'NONE',  ( 3.491481338843133355E-15, -1.224646799147353207E-16, 1.000000000000000000 ) ) ;
#131 = DIRECTION ( 'NONE',  ( -3.491481338843133355E-15, 1.224646799147353207E-16, -1.000000000000000000 ) ) ;
#132 = CC_DESIGN_APPROVAL ( #63, ( #67 ) ) ;
#133 = APPROVAL_ROLE ( '' ) ;
#134 = ADVANCED_FACE ( 'NONE', ( #202 ), #71, .F. ) ;
#135 = ORIENTED_EDGE ( 'NONE', *, *, #116, .F. ) ;
#136 = ADVANCED_BREP_SHAPE_REPRESENTATION ( '968680', ( #146, #15, #22 ), #139 ) ;
#137 = CALENDAR_DATE ( 2021, 16, 11 ) ;
#138 = ORIENTED_EDGE ( 'NONE', *, *, #95, .F. ) ;
#139 =( GEOMETRIC_REPRESENTATION_CONTEXT ( 3 ) GLOBAL_UNCERTAINTY_ASSIGNED_CONTEXT ( ( #14 ) ) GLOBAL_UNIT_ASSIGNED_CONTEXT ( ( #41, #101, #28 ) ) REPRESENTATION_CONTEXT ( 'NONE', 'WORKASPACE' ) );
#140 = EDGE_LOOP ( 'NONE', ( #138 ) ) ;
#141 = EDGE_LOOP ( 'NONE', ( #29 ) ) ;
#142 = DATE_TIME_ROLE ( 'creation_date' ) ;
#143 = SECURITY_CLASSIFICATION ( '', '', #88 ) ;
#144 = DIRECTION ( 'NONE',  ( 3.491481338843133355E-15, -1.224646799147353207E-16, 1.000000000000000000 ) ) ;
#145 = CC_DESIGN_DATE_AND_TIME_ASSIGNMENT ( #87, #152, ( #143 ) ) ;
#146 = MANIFOLD_SOLID_BREP ( 'Corps-Déplacer/Copier1[1]', #156 ) ;
#147 = DIRECTION ( 'NONE',  ( -4.275831445896958607E-31, -1.000000000000000000, -1.224646799147353207E-16 ) ) ;
#148 = CARTESIAN_POINT ( 'NONE',  ( 1.990144363140585886E-13, -6.980486755139912911E-15, 56.99999999999999289 ) ) ;
#149 = DIRECTION ( 'NONE',  ( -3.491481338843133355E-15, 1.224646799147353207E-16, -1.000000000000000000 ) ) ;
#150 = DIRECTION ( 'NONE',  ( 0.0000000000000000000, 1.000000000000000000, 0.0000000000000000000 ) ) ;
#151 = PERSON_AND_ORGANIZATION ( #8, #91 ) ;
#152 = DATE_TIME_ROLE ( 'classification_date' ) ;
#153 = ADVANCED_FACE ( 'NONE', ( #181, #99 ), #9, .T. ) ;
#154 = ORIENTED_EDGE ( 'NONE', *, *, #39, .T. ) ;
#155 = APPROVAL_DATE_TIME ( #90, #97 ) ;
#156 = CLOSED_SHELL ( 'NONE', ( #134, #53, #153, #21 ) ) ;
#157 = EDGE_LOOP ( 'NONE', ( #36 ) ) ;
#158 = DIRECTION ( 'NONE',  ( -3.491481338843133355E-15, 1.224646799147353207E-16, -1.000000000000000000 ) ) ;
#159 = COORDINATED_UNIVERSAL_TIME_OFFSET ( 1, 0, .AHEAD. ) ;
#160 = CC_DESIGN_DATE_AND_TIME_ASSIGNMENT ( #76, #142, ( #67 ) ) ;
#161 = LOCAL_TIME ( 10, 15, 44.00000000000000000, #175 ) ;
#162 = CLOSED_SHELL ( 'NONE', ( #112, #196, #126 ) ) ;
#163 = FACE_OUTER_BOUND ( 'NONE', #172, .T. ) ;
#164 = CARTESIAN_POINT ( 'NONE',  ( -6.413747168845438786E-31, 2.249639673992786412E-32, -1.836970198721029934E-16 ) ) ;
#165 = DIRECTION ( 'NONE',  ( -4.275831445896958607E-31, -1.000000000000000000, -1.224646799147353207E-16 ) ) ;
#166 = VERTEX_POINT ( 'NONE', #24 ) ;
#167 = DIRECTION ( 'NONE',  ( 0.0000000000000000000, 1.000000000000000000, 0.0000000000000000000 ) ) ;
#168 = PERSON_AND_ORGANIZATION_ROLE ( 'creator' ) ;
#169 = CC_DESIGN_APPROVAL ( #97, ( #143 ) ) ;
#170 = DESIGN_CONTEXT ( 'detailed design', #69, 'design' ) ;
#171 = PERSON_AND_ORGANIZATION ( #8, #91 ) ;
#172 = EDGE_LOOP ( 'NONE', ( #94 ) ) ;
#173 = CALENDAR_DATE ( 2021, 16, 11 ) ;
#174 = ORIENTED_EDGE ( 'NONE', *, *, #116, .T. ) ;
#175 = COORDINATED_UNIVERSAL_TIME_OFFSET ( 1, 0, .AHEAD. ) ;
#176 = AXIS2_PLACEMENT_3D ( 'NONE', #26, #42, #167 ) ;
#177 = DIRECTION ( 'NONE',  ( 1.000000000000000000, 0.0000000000000000000, 0.0000000000000000000 ) ) ;
#178 = AXIS2_PLACEMENT_3D ( 'NONE', #58, #131, #203 ) ;
#179 = AXIS2_PLACEMENT_3D ( 'NONE', #129, #130, #147 ) ;
#180 = CC_DESIGN_PERSON_AND_ORGANIZATION_ASSIGNMENT ( #106, #33, ( #143 ) ) ;
#181 = FACE_BOUND ( 'NONE', #68, .T. ) ;
#182 = FACE_OUTER_BOUND ( 'NONE', #74, .T. ) ;
#183 = AXIS2_PLACEMENT_3D ( 'NONE', #148, #186, #150 ) ;
#184 = CARTESIAN_POINT ( 'NONE',  ( 1.972686956446370283E-13, 2.999999999999988898, 56.49999999999999289 ) ) ;
#185 = PRODUCT_RELATED_PRODUCT_CATEGORY ( 'detail', '', ( #198 ) ) ;
#186 = DIRECTION ( 'NONE',  ( -3.491481338843133355E-15, 1.224646799147353207E-16, -1.000000000000000000 ) ) ;
#187 = APPROVAL_STATUS ( 'not_yet_approved' ) ;
#188 = ORIENTED_EDGE ( 'NONE', *, *, #32, .T. ) ;
#189 = APPROVAL ( #35, 'UNSPECIFIED' ) ;
#190 = CARTESIAN_POINT ( 'NONE',  ( 0.0000000000000000000, 0.0000000000000000000, 0.0000000000000000000 ) ) ;
#191 = PRODUCT_DEFINITION_SHAPE ( 'NONE', 'NONE',  #67 ) ;
#192 = PERSON_AND_ORGANIZATION ( #8, #91 ) ;
#193 = PERSON_AND_ORGANIZATION ( #8, #91 ) ;
#194 = AXIS2_PLACEMENT_3D ( 'NONE', #27, #83, #80 ) ;
#195 = PLANE ( 'NONE',  #11 ) ;
#196 = ADVANCED_FACE ( 'NONE', ( #182, #127 ), #57, .T. ) ;
#197 = CIRCLE ( 'NONE', #25, 2.999999999999995559 ) ;
#198 = PRODUCT ( '968680', '968680', '', ( #77 ) ) ;
#199 = VERTEX_POINT ( 'NONE', #54 ) ;
#200 = CC_DESIGN_PERSON_AND_ORGANIZATION_ASSIGNMENT ( #193, #168, ( #67 ) ) ;
#201 = CYLINDRICAL_SURFACE ( 'NONE', #178, 2.999999999999997780 ) ;
#202 = FACE_OUTER_BOUND ( 'NONE', #89, .T. ) ;
#203 = DIRECTION ( 'NONE',  ( 4.275831445896958607E-31, 1.000000000000000000, 1.224646799147353454E-16 ) ) ;
ENDSEC;
END-ISO-10303-21;
