ISO-10303-21;
HEADER;
FILE_DESCRIPTION (( 'STEP AP203' ),
    '1' );
FILE_NAME ('968679.step',
    '2021-11-16T09:15:43',
    ( '' ),
    ( '' ),
    'SwSTEP 2.0',
    'SolidWorks 2019',
    '' );
FILE_SCHEMA (( 'CONFIG_CONTROL_DESIGN' ));
ENDSEC;

DATA;
#1 = APPLICATION_PROTOCOL_DEFINITION ( 'international standard', 'config_control_design', 1994, #91 ) ;
#2 = CC_DESIGN_PERSON_AND_ORGANIZATION_ASSIGNMENT ( #169, #69, ( #175 ) ) ;
#3 = FACE_OUTER_BOUND ( 'NONE', #119, .T. ) ;
#4 = AXIS2_PLACEMENT_3D ( 'NONE', #8, #160, #200 ) ;
#5 = EDGE_CURVE ( 'NONE', #37, #37, #220, .T. ) ;
#6 = CARTESIAN_POINT ( 'NONE',  ( 5.510913009090911661E-14, -2.179140083412127650E-15, 15.78388218141500055 ) ) ;
#7 = AXIS2_PLACEMENT_3D ( 'NONE', #148, #32, #221 ) ;
#8 = CARTESIAN_POINT ( 'NONE',  ( 4.538925740496072731E-14, -2.508989923101728687E-15, 12.99999999999999822 ) ) ;
#9 = PERSON_AND_ORGANIZATION ( #29, #217 ) ;
#10 = CARTESIAN_POINT ( 'NONE',  ( -6.413747168845439661E-31, -4.336808689942017736E-16, -1.836970198721030181E-16 ) ) ;
#11 = AXIS2_PLACEMENT_3D ( 'NONE', #62, #80, #79 ) ;
#12 = FACE_OUTER_BOUND ( 'NONE', #18, .T. ) ;
#13 = DIRECTION ( 'NONE',  ( -3.491481338843133355E-15, 1.224646799147353207E-16, -1.000000000000000000 ) ) ;
#14 = ORIENTED_EDGE ( 'NONE', *, *, #171, .F. ) ;
#15 = APPROVAL ( #178, 'UNSPECIFIED' ) ;
#16 = EDGE_LOOP ( 'NONE', ( #151 ) ) ;
#17 = EDGE_CURVE ( 'NONE', #192, #192, #174, .T. ) ;
#18 = EDGE_LOOP ( 'NONE', ( #125 ) ) ;
#19 = CIRCLE ( 'NONE', #4, 2.500000000000001332 ) ;
#20 = APPROVAL_DATE_TIME ( #156, #15 ) ;
#21 = EDGE_LOOP ( 'NONE', ( #142 ) ) ;
#22 = CIRCLE ( 'NONE', #145, 2.500000000000001332 ) ;
#23 = TOROIDAL_SURFACE ( 'NONE', #182, 10.50000000000000000, 8.000000000000000000 ) ;
#24 = DIRECTION ( 'NONE',  ( 0.0000000000000000000, 1.000000000000000000, 0.0000000000000000000 ) ) ;
#25 = CONICAL_SURFACE ( 'NONE', #153, 2.999999999999995559, 0.7853981633974415066 ) ;
#26 = CALENDAR_DATE ( 2021, 16, 11 ) ;
#27 = CC_DESIGN_PERSON_AND_ORGANIZATION_ASSIGNMENT ( #139, #140, ( #39 ) ) ;
#28 = PLANE ( 'NONE',  #7 ) ;
#29 = PERSON ( 'UNSPECIFIED', 'UNSPECIFIED', 'UNSPECIFIED', ('UNSPECIFIED'), ('UNSPECIFIED'), ('UNSPECIFIED') ) ;
#30 = APPROVAL_ROLE ( '' ) ;
#31 = DATE_AND_TIME ( #167, #100 ) ;
#32 = DIRECTION ( 'NONE',  ( -3.491481338843133355E-15, 1.224646799147353207E-16, -1.000000000000000000 ) ) ;
#33 = EDGE_CURVE ( 'NONE', #172, #172, #22, .T. ) ;
#34 = LOCAL_TIME ( 10, 15, 43.00000000000000000, #118 ) ;
#35 = UNCERTAINTY_MEASURE_WITH_UNIT (LENGTH_MEASURE( 1.000000000000000082E-05 ), #223, 'distance_accuracy_value', 'NONE');
#36 = DATE_TIME_ROLE ( 'classification_date' ) ;
#37 = VERTEX_POINT ( 'NONE', #54 ) ;
#38 = CALENDAR_DATE ( 2021, 16, 11 ) ;
#39 = PRODUCT_DEFINITION_FORMATION_WITH_SPECIFIED_SOURCE ( 'ANY', '', #189, .NOT_KNOWN. ) ;
#40 = PERSON_AND_ORGANIZATION ( #29, #217 ) ;
#41 = EDGE_LOOP ( 'NONE', ( #14 ) ) ;
#42 = CC_DESIGN_PERSON_AND_ORGANIZATION_ASSIGNMENT ( #72, #103, ( #39 ) ) ;
#43 = APPROVAL_ROLE ( '' ) ;
#44 = ADVANCED_FACE ( 'NONE', ( #3, #71 ), #129, .T. ) ;
#45 = CARTESIAN_POINT ( 'NONE',  ( -6.413747168845438786E-31, 2.249639673992786412E-32, -1.836970198721029934E-16 ) ) ;
#46 = DIRECTION ( 'NONE',  ( -4.275831445896958607E-31, -1.000000000000000000, -1.224646799147353207E-16 ) ) ;
#47 = ADVANCED_FACE ( 'NONE', ( #96 ), #76, .T. ) ;
#48 = DATE_AND_TIME ( #63, #95 ) ;
#49 = DIRECTION ( 'NONE',  ( 4.275831445896958607E-31, 1.000000000000000000, 1.224646799147353454E-16 ) ) ;
#50 = AXIS2_PLACEMENT_3D ( 'NONE', #6, #184, #24 ) ;
#51 = DIRECTION ( 'NONE',  ( -3.491481338843133355E-15, 1.224646799147353207E-16, -1.000000000000000000 ) ) ;
#52 = APPROVAL_STATUS ( 'not_yet_approved' ) ;
#53 = CARTESIAN_POINT ( 'NONE',  ( -2.786885705672548041E-30, -2.500000000000000444, -7.981957900413565280E-16 ) ) ;
#54 = CARTESIAN_POINT ( 'NONE',  ( 5.510913009090911661E-14, 2.999999999999995559, 15.78388218141500055 ) ) ;
#55 = SHAPE_DEFINITION_REPRESENTATION ( #199, #93 ) ;
#56 = CLOSED_SHELL ( 'NONE', ( #44, #98, #198, #183, #120 ) ) ;
#57 = APPROVAL ( #52, 'UNSPECIFIED' ) ;
#58 = VERTEX_POINT ( 'NONE', #137 ) ;
#59 = DIRECTION ( 'NONE',  ( 3.491481338843133355E-15, -1.224646799147353207E-16, 1.000000000000000000 ) ) ;
#60 = ADVANCED_FACE ( 'NONE', ( #12 ), #109, .T. ) ;
#61 = DIRECTION ( 'NONE',  ( -3.491481338843133355E-15, 1.224646799147353207E-16, -1.000000000000000000 ) ) ;
#62 = CARTESIAN_POINT ( 'NONE',  ( 1.990144363140585886E-13, -6.980486755139912911E-15, 56.99999999999999289 ) ) ;
#63 = CALENDAR_DATE ( 2021, 16, 11 ) ;
#64 = FACE_BOUND ( 'NONE', #209, .T. ) ;
#65 = CIRCLE ( 'NONE', #90, 2.999999999999995559 ) ;
#66 = PRODUCT_RELATED_PRODUCT_CATEGORY ( 'detail', '', ( #189 ) ) ;
#67 = PERSON_AND_ORGANIZATION ( #29, #217 ) ;
#68 =( GEOMETRIC_REPRESENTATION_CONTEXT ( 3 ) GLOBAL_UNCERTAINTY_ASSIGNED_CONTEXT ( ( #35 ) ) GLOBAL_UNIT_ASSIGNED_CONTEXT ( ( #223, #170, #152 ) ) REPRESENTATION_CONTEXT ( 'NONE', 'WORKASPACE' ) );
#69 = PERSON_AND_ORGANIZATION_ROLE ( 'classification_officer' ) ;
#70 = SECURITY_CLASSIFICATION_LEVEL ( 'unclassified' ) ;
#71 = FACE_OUTER_BOUND ( 'NONE', #154, .T. ) ;
#72 = PERSON_AND_ORGANIZATION ( #29, #217 ) ;
#73 = PERSON_AND_ORGANIZATION_ROLE ( 'design_owner' ) ;
#74 = DIRECTION ( 'NONE',  ( 3.491481338843133355E-15, -1.596391580082713105E-16, 1.000000000000000000 ) ) ;
#75 = APPROVAL_PERSON_ORGANIZATION ( #67, #15, #86 ) ;
#76 = PLANE ( 'NONE',  #180 ) ;
#77 = AXIS2_PLACEMENT_3D ( 'NONE', #163, #59, #46 ) ;
#78 = CYLINDRICAL_SURFACE ( 'NONE', #190, 2.500000000000000444 ) ;
#79 = DIRECTION ( 'NONE',  ( 0.0000000000000000000, 1.000000000000000000, 0.0000000000000000000 ) ) ;
#80 = DIRECTION ( 'NONE',  ( -3.491481338843133355E-15, 1.224646799147353207E-16, -1.000000000000000000 ) ) ;
#81 = ORIENTED_EDGE ( 'NONE', *, *, #5, .T. ) ;
#82 = DESIGN_CONTEXT ( 'detailed design', #97, 'design' ) ;
#83 = APPROVAL_PERSON_ORGANIZATION ( #205, #57, #30 ) ;
#84 = APPROVAL_STATUS ( 'not_yet_approved' ) ;
#85 = EDGE_CURVE ( 'NONE', #58, #58, #65, .T. ) ;
#86 = APPROVAL_ROLE ( '' ) ;
#87 = CC_DESIGN_DATE_AND_TIME_ASSIGNMENT ( #48, #134, ( #111 ) ) ;
#88 = EDGE_LOOP ( 'NONE', ( #107 ) ) ;
#89 = MANIFOLD_SOLID_BREP ( 'Corps-Déplacer/Copier1[1]', #56 ) ;
#90 = AXIS2_PLACEMENT_3D ( 'NONE', #216, #203, #166 ) ;
#91 = APPLICATION_CONTEXT ( 'configuration controlled 3d designs of mechanical parts and assemblies' ) ;
#92 = CARTESIAN_POINT ( 'NONE',  ( 0.0000000000000000000, 0.0000000000000000000, 0.0000000000000000000 ) ) ;
#93 = ADVANCED_BREP_SHAPE_REPRESENTATION ( '968679', ( #89, #161, #138 ), #68 ) ;
#94 = FACE_OUTER_BOUND ( 'NONE', #159, .T. ) ;
#95 = LOCAL_TIME ( 10, 15, 43.00000000000000000, #99 ) ;
#96 = FACE_OUTER_BOUND ( 'NONE', #123, .T. ) ;
#97 = APPLICATION_CONTEXT ( 'configuration controlled 3d designs of mechanical parts and assemblies' ) ;
#98 = ADVANCED_FACE ( 'NONE', ( #64, #146 ), #25, .T. ) ;
#99 = COORDINATED_UNIVERSAL_TIME_OFFSET ( 1, 0, .AHEAD. ) ;
#100 = LOCAL_TIME ( 10, 15, 43.00000000000000000, #218 ) ;
#101 = APPROVAL_DATE_TIME ( #31, #57 ) ;
#102 = CARTESIAN_POINT ( 'NONE',  ( 4.538925740496072731E-14, -2.500000000000003997, 12.99999999999999822 ) ) ;
#103 = PERSON_AND_ORGANIZATION_ROLE ( 'design_supplier' ) ;
#104 = CC_DESIGN_DATE_AND_TIME_ASSIGNMENT ( #105, #36, ( #175 ) ) ;
#105 = DATE_AND_TIME ( #38, #110 ) ;
#106 = APPROVAL ( #84, 'UNSPECIFIED' ) ;
#107 = ORIENTED_EDGE ( 'NONE', *, *, #5, .F. ) ;
#108 = DIRECTION ( 'NONE',  ( 3.491481338843133355E-15, -1.596391580082713105E-16, 1.000000000000000000 ) ) ;
#109 = PLANE ( 'NONE',  #201 ) ;
#110 = LOCAL_TIME ( 10, 15, 43.00000000000000000, #124 ) ;
#111 = PRODUCT_DEFINITION ( 'UNKNOWN', '', #39, #82 ) ;
#112 = DIRECTION ( 'NONE',  ( 0.0000000000000000000, 1.000000000000000000, 0.0000000000000000000 ) ) ;
#113 = DIRECTION ( 'NONE',  ( 4.275831445896958607E-31, 1.000000000000000000, 1.224646799147353207E-16 ) ) ;
#114 = DIRECTION ( 'NONE',  ( 3.491481338843133355E-15, -1.596391580082713105E-16, 1.000000000000000000 ) ) ;
#115 = CARTESIAN_POINT ( 'NONE',  ( 1.990144363140585886E-13, 2.499999999999995115, 56.99999999999999289 ) ) ;
#116 = PERSON_AND_ORGANIZATION_ROLE ( 'creator' ) ;
#117 = AXIS2_PLACEMENT_3D ( 'NONE', #177, #74, #197 ) ;
#118 = COORDINATED_UNIVERSAL_TIME_OFFSET ( 1, 0, .AHEAD. ) ;
#119 = EDGE_LOOP ( 'NONE', ( #193 ) ) ;
#120 = ADVANCED_FACE ( 'NONE', ( #144 ), #131, .F. ) ;
#121 = CC_DESIGN_PERSON_AND_ORGANIZATION_ASSIGNMENT ( #9, #116, ( #111 ) ) ;
#122 = DIRECTION ( 'NONE',  ( 1.000000000000000000, 0.0000000000000000000, 0.0000000000000000000 ) ) ;
#123 = EDGE_LOOP ( 'NONE', ( #155 ) ) ;
#124 = COORDINATED_UNIVERSAL_TIME_OFFSET ( 1, 0, .AHEAD. ) ;
#125 = ORIENTED_EDGE ( 'NONE', *, *, #17, .F. ) ;
#126 = PERSON_AND_ORGANIZATION ( #29, #217 ) ;
#127 = CC_DESIGN_APPROVAL ( #15, ( #175 ) ) ;
#128 = APPLICATION_PROTOCOL_DEFINITION ( 'international standard', 'config_control_design', 1994, #97 ) ;
#129 = CYLINDRICAL_SURFACE ( 'NONE', #196, 2.999999999999997780 ) ;
#130 = DATE_AND_TIME ( #26, #164 ) ;
#131 = PLANE ( 'NONE',  #77 ) ;
#132 = FACE_OUTER_BOUND ( 'NONE', #88, .T. ) ;
#133 = FACE_OUTER_BOUND ( 'NONE', #41, .T. ) ;
#134 = DATE_TIME_ROLE ( 'creation_date' ) ;
#135 = ADVANCED_FACE ( 'NONE', ( #185, #204 ), #78, .T. ) ;
#136 = VERTEX_POINT ( 'NONE', #115 ) ;
#137 = CARTESIAN_POINT ( 'NONE',  ( 1.972686956446370283E-13, 2.999999999999988898, 56.49999999999999289 ) ) ;
#138 = AXIS2_PLACEMENT_3D ( 'NONE', #179, #181, #122 ) ;
#139 = PERSON_AND_ORGANIZATION ( #29, #217 ) ;
#140 = PERSON_AND_ORGANIZATION_ROLE ( 'creator' ) ;
#141 = MECHANICAL_CONTEXT ( 'NONE', #91, 'mechanical' ) ;
#142 = ORIENTED_EDGE ( 'NONE', *, *, #33, .F. ) ;
#143 = EDGE_CURVE ( 'NONE', #208, #208, #19, .T. ) ;
#144 = FACE_OUTER_BOUND ( 'NONE', #21, .T. ) ;
#145 = AXIS2_PLACEMENT_3D ( 'NONE', #213, #108, #211 ) ;
#146 = FACE_OUTER_BOUND ( 'NONE', #173, .T. ) ;
#147 = CARTESIAN_POINT ( 'NONE',  ( 1.972686956446370283E-13, -6.919254415182544548E-15, 56.49999999999999289 ) ) ;
#148 = CARTESIAN_POINT ( 'NONE',  ( 1.990144363140585886E-13, 8.685164181875800873E-31, 56.99999999999999289 ) ) ;
#149 = CARTESIAN_POINT ( 'NONE',  ( 4.538925740496072731E-14, -2.500000000000003997, 12.99999999999999822 ) ) ;
#150 = ORIENTED_EDGE ( 'NONE', *, *, #17, .T. ) ;
#151 = ORIENTED_EDGE ( 'NONE', *, *, #143, .F. ) ;
#152 =( NAMED_UNIT ( * ) SI_UNIT ( $, .STERADIAN. ) SOLID_ANGLE_UNIT ( ) );
#153 = AXIS2_PLACEMENT_3D ( 'NONE', #147, #13, #112 ) ;
#154 = EDGE_LOOP ( 'NONE', ( #81 ) ) ;
#155 = ORIENTED_EDGE ( 'NONE', *, *, #143, .T. ) ;
#156 = DATE_AND_TIME ( #176, #34 ) ;
#157 = CC_DESIGN_SECURITY_CLASSIFICATION ( #175, ( #39 ) ) ;
#158 = ORIENTED_EDGE ( 'NONE', *, *, #171, .T. ) ;
#159 = EDGE_LOOP ( 'NONE', ( #195 ) ) ;
#160 = DIRECTION ( 'NONE',  ( 3.491481338843133355E-15, -1.596391580082713105E-16, 1.000000000000000000 ) ) ;
#161 = MANIFOLD_SOLID_BREP ( 'Corps-Déplacer/Copier1[2]', #210 ) ;
#162 = APPROVAL_DATE_TIME ( #130, #106 ) ;
#163 = CARTESIAN_POINT ( 'NONE',  ( 4.538925740496073362E-14, 2.249639673992783675E-32, 13.00000000000000000 ) ) ;
#164 = LOCAL_TIME ( 10, 15, 43.00000000000000000, #187 ) ;
#165 = CARTESIAN_POINT ( 'NONE',  ( 4.538925740496073362E-14, 2.249639673992783675E-32, 13.00000000000000000 ) ) ;
#166 = DIRECTION ( 'NONE',  ( 0.0000000000000000000, 1.000000000000000000, 0.0000000000000000000 ) ) ;
#167 = CALENDAR_DATE ( 2021, 16, 11 ) ;
#168 = ORIENTED_EDGE ( 'NONE', *, *, #85, .F. ) ;
#169 = PERSON_AND_ORGANIZATION ( #29, #217 ) ;
#170 =( NAMED_UNIT ( * ) PLANE_ANGLE_UNIT ( ) SI_UNIT ( $, .RADIAN. ) );
#171 = EDGE_CURVE ( 'NONE', #136, #136, #202, .T. ) ;
#172 = VERTEX_POINT ( 'NONE', #102 ) ;
#173 = EDGE_LOOP ( 'NONE', ( #168 ) ) ;
#174 = CIRCLE ( 'NONE', #117, 2.500000000000000000 ) ;
#175 = SECURITY_CLASSIFICATION ( '', '', #70 ) ;
#176 = CALENDAR_DATE ( 2021, 16, 11 ) ;
#177 = CARTESIAN_POINT ( 'NONE',  ( -1.393442852836274020E-30, -4.336808689942017243E-16, -3.990978950206782640E-16 ) ) ;
#178 = APPROVAL_STATUS ( 'not_yet_approved' ) ;
#179 = CARTESIAN_POINT ( 'NONE',  ( 0.0000000000000000000, 0.0000000000000000000, 0.0000000000000000000 ) ) ;
#180 = AXIS2_PLACEMENT_3D ( 'NONE', #165, #214, #215 ) ;
#181 = DIRECTION ( 'NONE',  ( 0.0000000000000000000, 0.0000000000000000000, 1.000000000000000000 ) ) ;
#182 = AXIS2_PLACEMENT_3D ( 'NONE', #206, #114, #191 ) ;
#183 = ADVANCED_FACE ( 'NONE', ( #132, #94 ), #23, .F. ) ;
#184 = DIRECTION ( 'NONE',  ( 3.491481338843133355E-15, -1.596391580082713105E-16, 1.000000000000000000 ) ) ;
#185 = FACE_OUTER_BOUND ( 'NONE', #222, .T. ) ;
#186 = APPROVAL_PERSON_ORGANIZATION ( #40, #106, #43 ) ;
#187 = COORDINATED_UNIVERSAL_TIME_OFFSET ( 1, 0, .AHEAD. ) ;
#188 = DIRECTION ( 'NONE',  ( 3.491481338843133355E-15, -1.596391580082713105E-16, 1.000000000000000000 ) ) ;
#189 = PRODUCT ( '968679', '968679', '', ( #141 ) ) ;
#190 = AXIS2_PLACEMENT_3D ( 'NONE', #10, #188, #219 ) ;
#191 = DIRECTION ( 'NONE',  ( -5.688605116872704677E-31, -1.000000000000000000, -1.596391580082713105E-16 ) ) ;
#192 = VERTEX_POINT ( 'NONE', #53 ) ;
#193 = ORIENTED_EDGE ( 'NONE', *, *, #85, .T. ) ;
#194 = CC_DESIGN_APPROVAL ( #57, ( #39 ) ) ;
#195 = ORIENTED_EDGE ( 'NONE', *, *, #33, .T. ) ;
#196 = AXIS2_PLACEMENT_3D ( 'NONE', #92, #61, #49 ) ;
#197 = DIRECTION ( 'NONE',  ( -5.573771411345096081E-31, -1.000000000000000000, -1.596391580082713105E-16 ) ) ;
#198 = ADVANCED_FACE ( 'NONE', ( #133 ), #28, .F. ) ;
#199 = PRODUCT_DEFINITION_SHAPE ( 'NONE', 'NONE',  #111 ) ;
#200 = DIRECTION ( 'NONE',  ( 0.0000000000000000000, -1.000000000000000000, 0.0000000000000000000 ) ) ;
#201 = AXIS2_PLACEMENT_3D ( 'NONE', #45, #51, #113 ) ;
#202 = CIRCLE ( 'NONE', #11, 2.500000000000002220 ) ;
#203 = DIRECTION ( 'NONE',  ( -3.491481338843133355E-15, 1.224646799147353207E-16, -1.000000000000000000 ) ) ;
#204 = FACE_OUTER_BOUND ( 'NONE', #16, .T. ) ;
#205 = PERSON_AND_ORGANIZATION ( #29, #217 ) ;
#206 = CARTESIAN_POINT ( 'NONE',  ( 4.538925740496072731E-14, -1.734723475976807094E-15, 12.99999999999999822 ) ) ;
#207 = CC_DESIGN_PERSON_AND_ORGANIZATION_ASSIGNMENT ( #126, #73, ( #189 ) ) ;
#208 = VERTEX_POINT ( 'NONE', #149 ) ;
#209 = EDGE_LOOP ( 'NONE', ( #158 ) ) ;
#210 = CLOSED_SHELL ( 'NONE', ( #47, #135, #60 ) ) ;
#211 = DIRECTION ( 'NONE',  ( 0.0000000000000000000, -1.000000000000000000, 0.0000000000000000000 ) ) ;
#212 = CC_DESIGN_APPROVAL ( #106, ( #111 ) ) ;
#213 = CARTESIAN_POINT ( 'NONE',  ( 4.538925740496072731E-14, -2.508989923101728687E-15, 12.99999999999999822 ) ) ;
#214 = DIRECTION ( 'NONE',  ( 3.491481338843133355E-15, -1.224646799147353207E-16, 1.000000000000000000 ) ) ;
#215 = DIRECTION ( 'NONE',  ( -4.275831445896958607E-31, -1.000000000000000000, -1.224646799147353207E-16 ) ) ;
#216 = CARTESIAN_POINT ( 'NONE',  ( 1.972686956446370283E-13, -6.919254415182544548E-15, 56.49999999999999289 ) ) ;
#217 = ORGANIZATION ( 'UNSPECIFIED', 'UNSPECIFIED', '' ) ;
#218 = COORDINATED_UNIVERSAL_TIME_OFFSET ( 1, 0, .AHEAD. ) ;
#219 = DIRECTION ( 'NONE',  ( -5.573771411345096081E-31, -1.000000000000000000, -1.596391580082713105E-16 ) ) ;
#220 = CIRCLE ( 'NONE', #50, 2.999999999999997780 ) ;
#221 = DIRECTION ( 'NONE',  ( 4.275831445896958607E-31, 1.000000000000000000, 1.224646799147353207E-16 ) ) ;
#222 = EDGE_LOOP ( 'NONE', ( #150 ) ) ;
#223 =( LENGTH_UNIT ( ) NAMED_UNIT ( * ) SI_UNIT ( .MILLI., .METRE. ) );
ENDSEC;
END-ISO-10303-21;
