ISO-10303-21;
HEADER;
FILE_DESCRIPTION (( 'STEP AP203' ),
    '1' );
FILE_NAME ('968678.step',
    '2021-11-16T09:15:43',
    ( '' ),
    ( '' ),
    'SwSTEP 2.0',
    'SolidWorks 2019',
    '' );
FILE_SCHEMA (( 'CONFIG_CONTROL_DESIGN' ));
ENDSEC;

DATA;
#1 = CC_DESIGN_PERSON_AND_ORGANIZATION_ASSIGNMENT ( #37, #142, ( #70 ) ) ;
#2 = LOCAL_TIME ( 10, 15, 43.00000000000000000, #122 ) ;
#3 = FACE_OUTER_BOUND ( 'NONE', #117, .T. ) ;
#4 = AXIS2_PLACEMENT_3D ( 'NONE', #130, #16, #15 ) ;
#5 = PLANE ( 'NONE',  #85 ) ;
#6 = APPROVAL_ROLE ( '' ) ;
#7 = DATE_TIME_ROLE ( 'classification_date' ) ;
#8 = DIRECTION ( 'NONE',  ( 4.275831445896958607E-31, 1.000000000000000000, 1.224646799147353207E-16 ) ) ;
#9 = LOCAL_TIME ( 10, 15, 43.00000000000000000, #199 ) ;
#10 = APPROVAL ( #216, 'UNSPECIFIED' ) ;
#11 = PERSON_AND_ORGANIZATION ( #132, #102 ) ;
#12 = LOCAL_TIME ( 10, 15, 43.00000000000000000, #188 ) ;
#13 = CARTESIAN_POINT ( 'NONE',  ( -6.413747168845438786E-31, 2.249639673992786412E-32, -1.836970198721029934E-16 ) ) ;
#14 = APPROVAL_ROLE ( '' ) ;
#15 = DIRECTION ( 'NONE',  ( -4.275831445896958607E-31, -1.000000000000000000, -1.224646799147353207E-16 ) ) ;
#16 = DIRECTION ( 'NONE',  ( 3.491481338843133355E-15, -1.224646799147353207E-16, 1.000000000000000000 ) ) ;
#17 = AXIS2_PLACEMENT_3D ( 'NONE', #31, #171, #212 ) ;
#18 =( NAMED_UNIT ( * ) PLANE_ANGLE_UNIT ( ) SI_UNIT ( $, .RADIAN. ) );
#19 = EDGE_LOOP ( 'NONE', ( #175 ) ) ;
#20 = CIRCLE ( 'NONE', #144, 3.000000000000002665 ) ;
#21 = CC_DESIGN_PERSON_AND_ORGANIZATION_ASSIGNMENT ( #78, #92, ( #70 ) ) ;
#22 = TOROIDAL_SURFACE ( 'NONE', #149, 10.00000000000000000, 8.000000000000000000 ) ;
#23 = DATE_AND_TIME ( #42, #57 ) ;
#24 = ORIENTED_EDGE ( 'NONE', *, *, #49, .T. ) ;
#25 = AXIS2_PLACEMENT_3D ( 'NONE', #63, #125, #198 ) ;
#26 = CALENDAR_DATE ( 2021, 16, 11 ) ;
#27 = CALENDAR_DATE ( 2021, 16, 11 ) ;
#28 = CIRCLE ( 'NONE', #53, 2.599999999999998312 ) ;
#29 = CIRCLE ( 'NONE', #61, 3.000000000000001332 ) ;
#30 = ADVANCED_FACE ( 'NONE', ( #3, #209 ), #74, .T. ) ;
#31 = CARTESIAN_POINT ( 'NONE',  ( 1.976178437785213605E-13, -6.931500883174019483E-15, 56.60000000000000142 ) ) ;
#32 = VERTEX_POINT ( 'NONE', #174 ) ;
#33 = EDGE_CURVE ( 'NONE', #48, #48, #28, .T. ) ;
#34 = VERTEX_POINT ( 'NONE', #206 ) ;
#35 = ADVANCED_FACE ( 'NONE', ( #107 ), #5, .T. ) ;
#36 = CONICAL_SURFACE ( 'NONE', #17, 3.000000000000002665, 0.7853981633974569387 ) ;
#37 = PERSON_AND_ORGANIZATION ( #132, #102 ) ;
#38 = APPROVAL_STATUS ( 'not_yet_approved' ) ;
#39 = DIRECTION ( 'NONE',  ( -3.491481338843133355E-15, 1.224646799147353207E-16, -1.000000000000000000 ) ) ;
#40 = APPROVAL_ROLE ( '' ) ;
#41 = APPROVAL_PERSON_ORGANIZATION ( #59, #54, #6 ) ;
#42 = CALENDAR_DATE ( 2021, 16, 11 ) ;
#43 = PLANE ( 'NONE',  #176 ) ;
#44 = DIRECTION ( 'NONE',  ( -5.573771411345097833E-31, -1.000000000000000000, -1.596391580082713352E-16 ) ) ;
#45 = CARTESIAN_POINT ( 'NONE',  ( 3.840629472727446060E-14, -1.734723475976807094E-15, 10.99999999999999822 ) ) ;
#46 = APPROVAL_PERSON_ORGANIZATION ( #119, #77, #40 ) ;
#47 = DIRECTION ( 'NONE',  ( 3.491481338843133355E-15, -1.224646799147353207E-16, 1.000000000000000000 ) ) ;
#48 = VERTEX_POINT ( 'NONE', #50 ) ;
#49 = EDGE_CURVE ( 'NONE', #32, #32, #20, .T. ) ;
#50 = CARTESIAN_POINT ( 'NONE',  ( 1.990144363140586139E-13, 2.599999999999991207, 57.00000000000000000 ) ) ;
#51 = ORIENTED_EDGE ( 'NONE', *, *, #33, .T. ) ;
#52 = DIRECTION ( 'NONE',  ( 3.491481338843133355E-15, -1.596391580082713105E-16, 1.000000000000000000 ) ) ;
#53 = AXIS2_PLACEMENT_3D ( 'NONE', #210, #39, #161 ) ;
#54 = APPROVAL ( #165, 'UNSPECIFIED' ) ;
#55 = SECURITY_CLASSIFICATION_LEVEL ( 'unclassified' ) ;
#56 = MECHANICAL_CONTEXT ( 'NONE', #96, 'mechanical' ) ;
#57 = LOCAL_TIME ( 10, 15, 43.00000000000000000, #104 ) ;
#58 = PRODUCT_DEFINITION_SHAPE ( 'NONE', 'NONE',  #135 ) ;
#59 = PERSON_AND_ORGANIZATION ( #132, #102 ) ;
#60 = FACE_OUTER_BOUND ( 'NONE', #68, .T. ) ;
#61 = AXIS2_PLACEMENT_3D ( 'NONE', #168, #148, #93 ) ;
#62 = DIRECTION ( 'NONE',  ( 4.275831445896958607E-31, 1.000000000000000000, 1.224646799147353207E-16 ) ) ;
#63 = CARTESIAN_POINT ( 'NONE',  ( 3.840629472727446060E-14, -2.189711607085186116E-15, 10.99999999999999822 ) ) ;
#64 = DIRECTION ( 'NONE',  ( 3.491481338843133355E-15, -1.596391580082713105E-16, 1.000000000000000000 ) ) ;
#65 = CC_DESIGN_DATE_AND_TIME_ASSIGNMENT ( #23, #7, ( #121 ) ) ;
#66 = AXIS2_PLACEMENT_3D ( 'NONE', #189, #98, #62 ) ;
#67 = CALENDAR_DATE ( 2021, 16, 11 ) ;
#68 = EDGE_LOOP ( 'NONE', ( #184 ) ) ;
#69 = DESIGN_CONTEXT ( 'detailed design', #196, 'design' ) ;
#70 = PRODUCT_DEFINITION_FORMATION_WITH_SPECIFIED_SOURCE ( 'ANY', '', #213, .NOT_KNOWN. ) ;
#71 = CC_DESIGN_SECURITY_CLASSIFICATION ( #121, ( #70 ) ) ;
#72 = ORIENTED_EDGE ( 'NONE', *, *, #146, .T. ) ;
#73 = EDGE_CURVE ( 'NONE', #136, #136, #29, .T. ) ;
#74 = CYLINDRICAL_SURFACE ( 'NONE', #221, 3.000000000000001332 ) ;
#75 = MANIFOLD_SOLID_BREP ( 'Corps-Déplacer/Copier1[1]', #178 ) ;
#76 = CLOSED_SHELL ( 'NONE', ( #35, #110, #106 ) ) ;
#77 = APPROVAL ( #38, 'UNSPECIFIED' ) ;
#78 = PERSON_AND_ORGANIZATION ( #132, #102 ) ;
#79 = PLANE ( 'NONE',  #66 ) ;
#80 = APPROVAL_DATE_TIME ( #128, #10 ) ;
#81 = FACE_BOUND ( 'NONE', #90, .T. ) ;
#82 = FACE_OUTER_BOUND ( 'NONE', #203, .T. ) ;
#83 = DIRECTION ( 'NONE',  ( -4.275831445896958607E-31, -1.000000000000000000, -1.224646799147353207E-16 ) ) ;
#84 = CARTESIAN_POINT ( 'NONE',  ( -1.114754282269019567E-30, -4.336808689942017736E-16, -3.192783160165426704E-16 ) ) ;
#85 = AXIS2_PLACEMENT_3D ( 'NONE', #108, #47, #83 ) ;
#86 =( LENGTH_UNIT ( ) NAMED_UNIT ( * ) SI_UNIT ( .MILLI., .METRE. ) );
#87 = CC_DESIGN_APPROVAL ( #10, ( #121 ) ) ;
#88 = EDGE_LOOP ( 'NONE', ( #195 ) ) ;
#89 = APPROVAL_DATE_TIME ( #160, #54 ) ;
#90 = EDGE_LOOP ( 'NONE', ( #51 ) ) ;
#91 = CC_DESIGN_PERSON_AND_ORGANIZATION_ASSIGNMENT ( #11, #185, ( #135 ) ) ;
#92 = PERSON_AND_ORGANIZATION_ROLE ( 'creator' ) ;
#93 = DIRECTION ( 'NONE',  ( 0.0000000000000000000, 1.000000000000000000, 0.0000000000000000000 ) ) ;
#94 = ADVANCED_BREP_SHAPE_REPRESENTATION ( '968678', ( #75, #152, #100 ), #97 ) ;
#95 = FACE_OUTER_BOUND ( 'NONE', #105, .T. ) ;
#96 = APPLICATION_CONTEXT ( 'configuration controlled 3d designs of mechanical parts and assemblies' ) ;
#97 =( GEOMETRIC_REPRESENTATION_CONTEXT ( 3 ) GLOBAL_UNCERTAINTY_ASSIGNED_CONTEXT ( ( #193 ) ) GLOBAL_UNIT_ASSIGNED_CONTEXT ( ( #86, #18, #99 ) ) REPRESENTATION_CONTEXT ( 'NONE', 'WORKASPACE' ) );
#98 = DIRECTION ( 'NONE',  ( -3.491481338843133355E-15, 1.224646799147353207E-16, -1.000000000000000000 ) ) ;
#99 =( NAMED_UNIT ( * ) SI_UNIT ( $, .STERADIAN. ) SOLID_ANGLE_UNIT ( ) );
#100 = AXIS2_PLACEMENT_3D ( 'NONE', #140, #116, #179 ) ;
#101 = ADVANCED_FACE ( 'NONE', ( #60 ), #79, .F. ) ;
#102 = ORGANIZATION ( 'UNSPECIFIED', 'UNSPECIFIED', '' ) ;
#103 = DATE_AND_TIME ( #120, #137 ) ;
#104 = COORDINATED_UNIVERSAL_TIME_OFFSET ( 1, 0, .AHEAD. ) ;
#105 = EDGE_LOOP ( 'NONE', ( #222 ) ) ;
#106 = ADVANCED_FACE ( 'NONE', ( #127 ), #43, .T. ) ;
#107 = FACE_OUTER_BOUND ( 'NONE', #157, .T. ) ;
#108 = CARTESIAN_POINT ( 'NONE',  ( 3.840629472727446691E-14, 2.249639673992784496E-32, 11.00000000000000000 ) ) ;
#109 = FACE_OUTER_BOUND ( 'NONE', #141, .T. ) ;
#110 = ADVANCED_FACE ( 'NONE', ( #82, #150 ), #166, .T. ) ;
#111 = DIRECTION ( 'NONE',  ( -3.491481338843133355E-15, 1.224646799147353207E-16, -1.000000000000000000 ) ) ;
#112 = DIRECTION ( 'NONE',  ( 4.275831445896958607E-31, 1.000000000000000000, 1.224646799147353207E-16 ) ) ;
#113 = VERTEX_POINT ( 'NONE', #133 ) ;
#114 = AXIS2_PLACEMENT_3D ( 'NONE', #219, #64, #44 ) ;
#115 = CARTESIAN_POINT ( 'NONE',  ( 3.840629472727446060E-14, -2.000000000000002665, 10.99999999999999822 ) ) ;
#116 = DIRECTION ( 'NONE',  ( 0.0000000000000000000, 0.0000000000000000000, 1.000000000000000000 ) ) ;
#117 = EDGE_LOOP ( 'NONE', ( #24 ) ) ;
#118 = CARTESIAN_POINT ( 'NONE',  ( 0.0000000000000000000, 0.0000000000000000000, 0.0000000000000000000 ) ) ;
#119 = PERSON_AND_ORGANIZATION ( #132, #102 ) ;
#120 = CALENDAR_DATE ( 2021, 16, 11 ) ;
#121 = SECURITY_CLASSIFICATION ( '', '', #55 ) ;
#122 = COORDINATED_UNIVERSAL_TIME_OFFSET ( 1, 0, .AHEAD. ) ;
#123 = PERSON_AND_ORGANIZATION ( #132, #102 ) ;
#124 = PERSON_AND_ORGANIZATION ( #132, #102 ) ;
#125 = DIRECTION ( 'NONE',  ( 3.491481338843133355E-15, -1.596391580082713105E-16, 1.000000000000000000 ) ) ;
#126 = DATE_AND_TIME ( #27, #12 ) ;
#127 = FACE_OUTER_BOUND ( 'NONE', #173, .T. ) ;
#128 = DATE_AND_TIME ( #67, #9 ) ;
#129 = DIRECTION ( 'NONE',  ( -5.573771411345096957E-31, -1.000000000000000000, -1.596391580082713105E-16 ) ) ;
#130 = CARTESIAN_POINT ( 'NONE',  ( 3.840629472727446691E-14, 2.249639673992784496E-32, 11.00000000000000000 ) ) ;
#131 = CC_DESIGN_PERSON_AND_ORGANIZATION_ASSIGNMENT ( #123, #208, ( #213 ) ) ;
#132 = PERSON ( 'UNSPECIFIED', 'UNSPECIFIED', 'UNSPECIFIED', ('UNSPECIFIED'), ('UNSPECIFIED'), ('UNSPECIFIED') ) ;
#133 = CARTESIAN_POINT ( 'NONE',  ( 3.840629472727446060E-14, -2.000000000000002665, 10.99999999999999822 ) ) ;
#134 = ORIENTED_EDGE ( 'NONE', *, *, #177, .T. ) ;
#135 = PRODUCT_DEFINITION ( 'UNKNOWN', '', #70, #69 ) ;
#136 = VERTEX_POINT ( 'NONE', #204 ) ;
#137 = LOCAL_TIME ( 10, 15, 43.00000000000000000, #183 ) ;
#138 = EDGE_LOOP ( 'NONE', ( #207 ) ) ;
#139 = APPLICATION_PROTOCOL_DEFINITION ( 'international standard', 'config_control_design', 1994, #96 ) ;
#140 = CARTESIAN_POINT ( 'NONE',  ( 0.0000000000000000000, 0.0000000000000000000, 0.0000000000000000000 ) ) ;
#141 = EDGE_LOOP ( 'NONE', ( #156 ) ) ;
#142 = PERSON_AND_ORGANIZATION_ROLE ( 'design_supplier' ) ;
#143 = PERSON_AND_ORGANIZATION ( #132, #102 ) ;
#144 = AXIS2_PLACEMENT_3D ( 'NONE', #214, #187, #170 ) ;
#145 = DATE_TIME_ROLE ( 'creation_date' ) ;
#146 = EDGE_CURVE ( 'NONE', #113, #113, #186, .T. ) ;
#147 = PERSON_AND_ORGANIZATION_ROLE ( 'classification_officer' ) ;
#148 = DIRECTION ( 'NONE',  ( 3.491481338843133355E-15, -1.596391580082713105E-16, 1.000000000000000000 ) ) ;
#149 = AXIS2_PLACEMENT_3D ( 'NONE', #45, #200, #192 ) ;
#150 = FACE_OUTER_BOUND ( 'NONE', #138, .T. ) ;
#151 = DIRECTION ( 'NONE',  ( 3.491481338843133355E-15, -1.596391580082713105E-16, 1.000000000000000000 ) ) ;
#152 = MANIFOLD_SOLID_BREP ( 'Corps-Déplacer/Copier1[2]', #76 ) ;
#153 = VERTEX_POINT ( 'NONE', #115 ) ;
#154 = DIRECTION ( 'NONE',  ( 0.0000000000000000000, -1.000000000000000000, 0.0000000000000000000 ) ) ;
#155 = EDGE_LOOP ( 'NONE', ( #180 ) ) ;
#156 = ORIENTED_EDGE ( 'NONE', *, *, #215, .F. ) ;
#157 = EDGE_LOOP ( 'NONE', ( #72 ) ) ;
#158 = ORIENTED_EDGE ( 'NONE', *, *, #177, .F. ) ;
#159 = CIRCLE ( 'NONE', #217, 2.000000000000000444 ) ;
#160 = DATE_AND_TIME ( #26, #2 ) ;
#161 = DIRECTION ( 'NONE',  ( 0.0000000000000000000, 1.000000000000000000, 0.0000000000000000000 ) ) ;
#162 = ADVANCED_FACE ( 'NONE', ( #109 ), #218, .F. ) ;
#163 = DIRECTION ( 'NONE',  ( -3.491481338843133355E-15, 1.224646799147353207E-16, -1.000000000000000000 ) ) ;
#164 = CIRCLE ( 'NONE', #205, 2.000000000000000444 ) ;
#165 = APPROVAL_STATUS ( 'not_yet_approved' ) ;
#166 = CYLINDRICAL_SURFACE ( 'NONE', #114, 2.000000000000000444 ) ;
#167 = APPROVAL_DATE_TIME ( #126, #77 ) ;
#168 = CARTESIAN_POINT ( 'NONE',  ( 5.192874380620789820E-14, -2.353003276345416450E-15, 14.87298334620741613 ) ) ;
#169 = SHAPE_DEFINITION_REPRESENTATION ( #58, #94 ) ;
#170 = DIRECTION ( 'NONE',  ( 0.0000000000000000000, 1.000000000000000000, 0.0000000000000000000 ) ) ;
#171 = DIRECTION ( 'NONE',  ( -3.491481338843133355E-15, 1.224646799147353207E-16, -1.000000000000000000 ) ) ;
#172 = APPROVAL_PERSON_ORGANIZATION ( #143, #10, #14 ) ;
#173 = EDGE_LOOP ( 'NONE', ( #158 ) ) ;
#174 = CARTESIAN_POINT ( 'NONE',  ( 1.976178437785213605E-13, 2.999999999999995559, 56.60000000000000142 ) ) ;
#175 = ORIENTED_EDGE ( 'NONE', *, *, #215, .T. ) ;
#176 = AXIS2_PLACEMENT_3D ( 'NONE', #13, #111, #112 ) ;
#177 = EDGE_CURVE ( 'NONE', #34, #34, #159, .T. ) ;
#178 = CLOSED_SHELL ( 'NONE', ( #30, #211, #101, #182, #162 ) ) ;
#179 = DIRECTION ( 'NONE',  ( 1.000000000000000000, 0.0000000000000000000, 0.0000000000000000000 ) ) ;
#180 = ORIENTED_EDGE ( 'NONE', *, *, #73, .T. ) ;
#181 = APPLICATION_PROTOCOL_DEFINITION ( 'international standard', 'config_control_design', 1994, #196 ) ;
#182 = ADVANCED_FACE ( 'NONE', ( #95, #202 ), #22, .F. ) ;
#183 = COORDINATED_UNIVERSAL_TIME_OFFSET ( 1, 0, .AHEAD. ) ;
#184 = ORIENTED_EDGE ( 'NONE', *, *, #33, .F. ) ;
#185 = PERSON_AND_ORGANIZATION_ROLE ( 'creator' ) ;
#186 = CIRCLE ( 'NONE', #25, 2.000000000000000444 ) ;
#187 = DIRECTION ( 'NONE',  ( -3.491481338843133355E-15, 1.224646799147353207E-16, -1.000000000000000000 ) ) ;
#188 = COORDINATED_UNIVERSAL_TIME_OFFSET ( 1, 0, .AHEAD. ) ;
#189 = CARTESIAN_POINT ( 'NONE',  ( 1.990144363140586139E-13, 1.949687717460403121E-32, 57.00000000000000000 ) ) ;
#190 = CC_DESIGN_PERSON_AND_ORGANIZATION_ASSIGNMENT ( #124, #147, ( #121 ) ) ;
#191 = PRODUCT_RELATED_PRODUCT_CATEGORY ( 'detail', '', ( #213 ) ) ;
#192 = DIRECTION ( 'NONE',  ( -5.691794942026249652E-31, -1.000000000000000000, -1.596391580082713105E-16 ) ) ;
#193 = UNCERTAINTY_MEASURE_WITH_UNIT (LENGTH_MEASURE( 1.000000000000000082E-05 ), #86, 'distance_accuracy_value', 'NONE');
#194 = CC_DESIGN_APPROVAL ( #77, ( #135 ) ) ;
#195 = ORIENTED_EDGE ( 'NONE', *, *, #49, .F. ) ;
#196 = APPLICATION_CONTEXT ( 'configuration controlled 3d designs of mechanical parts and assemblies' ) ;
#197 = CC_DESIGN_DATE_AND_TIME_ASSIGNMENT ( #103, #145, ( #135 ) ) ;
#198 = DIRECTION ( 'NONE',  ( 0.0000000000000000000, -1.000000000000000000, 0.0000000000000000000 ) ) ;
#199 = COORDINATED_UNIVERSAL_TIME_OFFSET ( 1, 0, .AHEAD. ) ;
#200 = DIRECTION ( 'NONE',  ( 3.491481338843133355E-15, -1.596391580082713105E-16, 1.000000000000000000 ) ) ;
#201 = FACE_OUTER_BOUND ( 'NONE', #88, .T. ) ;
#202 = FACE_OUTER_BOUND ( 'NONE', #19, .T. ) ;
#203 = EDGE_LOOP ( 'NONE', ( #134 ) ) ;
#204 = CARTESIAN_POINT ( 'NONE',  ( 5.192874380620789820E-14, 2.999999999999999112, 14.87298334620741613 ) ) ;
#205 = AXIS2_PLACEMENT_3D ( 'NONE', #223, #52, #154 ) ;
#206 = CARTESIAN_POINT ( 'NONE',  ( -2.229508564538039133E-30, -2.000000000000000888, -6.385566320330853407E-16 ) ) ;
#207 = ORIENTED_EDGE ( 'NONE', *, *, #146, .F. ) ;
#208 = PERSON_AND_ORGANIZATION_ROLE ( 'design_owner' ) ;
#209 = FACE_OUTER_BOUND ( 'NONE', #155, .T. ) ;
#210 = CARTESIAN_POINT ( 'NONE',  ( 1.990144363140586139E-13, -6.980486755139912911E-15, 57.00000000000000000 ) ) ;
#211 = ADVANCED_FACE ( 'NONE', ( #81, #201 ), #36, .T. ) ;
#212 = DIRECTION ( 'NONE',  ( 0.0000000000000000000, 1.000000000000000000, 0.0000000000000000000 ) ) ;
#213 = PRODUCT ( '968678', '968678', '', ( #56 ) ) ;
#214 = CARTESIAN_POINT ( 'NONE',  ( 1.976178437785213605E-13, -6.931500883174019483E-15, 56.60000000000000142 ) ) ;
#215 = EDGE_CURVE ( 'NONE', #153, #153, #164, .T. ) ;
#216 = APPROVAL_STATUS ( 'not_yet_approved' ) ;
#217 = AXIS2_PLACEMENT_3D ( 'NONE', #84, #151, #129 ) ;
#218 = PLANE ( 'NONE',  #4 ) ;
#219 = CARTESIAN_POINT ( 'NONE',  ( -6.413747168845439661E-31, -4.336808689942017736E-16, -1.836970198721030181E-16 ) ) ;
#220 = CC_DESIGN_APPROVAL ( #54, ( #70 ) ) ;
#221 = AXIS2_PLACEMENT_3D ( 'NONE', #118, #163, #8 ) ;
#222 = ORIENTED_EDGE ( 'NONE', *, *, #73, .F. ) ;
#223 = CARTESIAN_POINT ( 'NONE',  ( 3.840629472727446060E-14, -2.189711607085186116E-15, 10.99999999999999822 ) ) ;
ENDSEC;
END-ISO-10303-21;
