ISO-10303-21;
HEADER;
FILE_DESCRIPTION (( 'STEP AP203' ),
    '1' );
FILE_NAME ('968672.step',
    '2021-11-16T09:15:42',
    ( '' ),
    ( '' ),
    'SwSTEP 2.0',
    'SolidWorks 2019',
    '' );
FILE_SCHEMA (( 'CONFIG_CONTROL_DESIGN' ));
ENDSEC;

DATA;
#1 = EDGE_CURVE ( 'NONE', #6, #6, #108, .T. ) ;
#2 = CARTESIAN_POINT ( 'NONE',  ( 2.793185071074506053E-14, -1.710794133060371863E-15, 7.999999999999998224 ) ) ;
#3 = AXIS2_PLACEMENT_3D ( 'NONE', #98, #212, #116 ) ;
#4 = LOCAL_TIME ( 10, 15, 42.00000000000000000, #181 ) ;
#5 = DIRECTION ( 'NONE',  ( 0.0000000000000000000, 1.000000000000000000, 0.0000000000000000000 ) ) ;
#6 = VERTEX_POINT ( 'NONE', #208 ) ;
#7 = AXIS2_PLACEMENT_3D ( 'NONE', #193, #188, #143 ) ;
#8 = FACE_OUTER_BOUND ( 'NONE', #130, .T. ) ;
#9 = APPROVAL ( #110, 'UNSPECIFIED' ) ;
#10 = APPROVAL_STATUS ( 'not_yet_approved' ) ;
#11 = ADVANCED_FACE ( 'NONE', ( #77 ), #51, .T. ) ;
#12 = APPROVAL_ROLE ( '' ) ;
#13 = PRODUCT_DEFINITION_FORMATION_WITH_SPECIFIED_SOURCE ( 'ANY', '', #165, .NOT_KNOWN. ) ;
#14 = ORIENTED_EDGE ( 'NONE', *, *, #38, .T. ) ;
#15 = MANIFOLD_SOLID_BREP ( 'Corps-Déplacer/Copier1[1]', #137 ) ;
#16 = EDGE_LOOP ( 'NONE', ( #47 ) ) ;
#17 = PLANE ( 'NONE',  #30 ) ;
#18 = PLANE ( 'NONE',  #202 ) ;
#19 = MANIFOLD_SOLID_BREP ( 'Corps-Déplacer/Copier1[2]', #132 ) ;
#20 = DIRECTION ( 'NONE',  ( -3.491481338843133355E-15, 1.224646799147353207E-16, -1.000000000000000000 ) ) ;
#21 = FACE_OUTER_BOUND ( 'NONE', #135, .T. ) ;
#22 = FACE_OUTER_BOUND ( 'NONE', #111, .T. ) ;
#23 = CIRCLE ( 'NONE', #205, 2.999999999999999112 ) ;
#24 = DATE_AND_TIME ( #44, #86 ) ;
#25 = PERSON_AND_ORGANIZATION ( #198, #190 ) ;
#26 = PERSON_AND_ORGANIZATION ( #198, #190 ) ;
#27 = CIRCLE ( 'NONE', #126, 2.700000000000004619 ) ;
#28 = CALENDAR_DATE ( 2021, 16, 11 ) ;
#29 = PRODUCT_RELATED_PRODUCT_CATEGORY ( 'detail', '', ( #165 ) ) ;
#30 = AXIS2_PLACEMENT_3D ( 'NONE', #170, #103, #79 ) ;
#31 = CARTESIAN_POINT ( 'NONE',  ( 4.421503566283302108E-14, -2.479230945206349530E-15, 12.66368952654440427 ) ) ;
#32 = EDGE_LOOP ( 'NONE', ( #168 ) ) ;
#33 = DIRECTION ( 'NONE',  ( -5.573771411345095205E-31, -1.000000000000000000, -1.596391580082713105E-16 ) ) ;
#34 = FACE_OUTER_BOUND ( 'NONE', #16, .T. ) ;
#35 = CC_DESIGN_PERSON_AND_ORGANIZATION_ASSIGNMENT ( #56, #109, ( #13 ) ) ;
#36 = DIRECTION ( 'NONE',  ( 3.491481338843133355E-15, -1.596391580082713105E-16, 1.000000000000000000 ) ) ;
#37 = DIRECTION ( 'NONE',  ( 4.275831445896958607E-31, 1.000000000000000000, 1.224646799147353207E-16 ) ) ;
#38 = EDGE_CURVE ( 'NONE', #69, #69, #96, .T. ) ;
#39 = APPLICATION_PROTOCOL_DEFINITION ( 'international standard', 'config_control_design', 1994, #82 ) ;
#40 = AXIS2_PLACEMENT_3D ( 'NONE', #68, #99, #37 ) ;
#41 = DATE_TIME_ROLE ( 'classification_date' ) ;
#42 = PERSON_AND_ORGANIZATION ( #198, #190 ) ;
#43 = VERTEX_POINT ( 'NONE', #216 ) ;
#44 = CALENDAR_DATE ( 2021, 16, 11 ) ;
#45 = APPROVAL_PERSON_ORGANIZATION ( #42, #157, #12 ) ;
#46 = DATE_AND_TIME ( #28, #4 ) ;
#47 = ORIENTED_EDGE ( 'NONE', *, *, #1, .F. ) ;
#48 = ORIENTED_EDGE ( 'NONE', *, *, #54, .T. ) ;
#49 = CARTESIAN_POINT ( 'NONE',  ( 0.0000000000000000000, 0.0000000000000000000, 0.0000000000000000000 ) ) ;
#50 = DIRECTION ( 'NONE',  ( 0.0000000000000000000, 1.000000000000000000, 0.0000000000000000000 ) ) ;
#51 = PLANE ( 'NONE',  #94 ) ;
#52 = CC_DESIGN_SECURITY_CLASSIFICATION ( #133, ( #13 ) ) ;
#53 = DIRECTION ( 'NONE',  ( -4.275831445896958607E-31, -1.000000000000000000, -1.224646799147353207E-16 ) ) ;
#54 = EDGE_CURVE ( 'NONE', #210, #210, #27, .T. ) ;
#55 = FACE_OUTER_BOUND ( 'NONE', #134, .T. ) ;
#56 = PERSON_AND_ORGANIZATION ( #198, #190 ) ;
#57 = AXIS2_PLACEMENT_3D ( 'NONE', #2, #36, #171 ) ;
#58 = CARTESIAN_POINT ( 'NONE',  ( -1.672131423403529875E-30, -1.500000000000001332, -4.789174740248142521E-16 ) ) ;
#59 =( NAMED_UNIT ( * ) SI_UNIT ( $, .STERADIAN. ) SOLID_ANGLE_UNIT ( ) );
#60 = SHAPE_DEFINITION_REPRESENTATION ( #129, #211 ) ;
#61 = COORDINATED_UNIVERSAL_TIME_OFFSET ( 1, 0, .AHEAD. ) ;
#62 = APPLICATION_PROTOCOL_DEFINITION ( 'international standard', 'config_control_design', 1994, #63 ) ;
#63 = APPLICATION_CONTEXT ( 'configuration controlled 3d designs of mechanical parts and assemblies' ) ;
#64 = AXIS2_PLACEMENT_3D ( 'NONE', #31, #95, #166 ) ;
#65 = ORIENTED_EDGE ( 'NONE', *, *, #92, .F. ) ;
#66 = FACE_OUTER_BOUND ( 'NONE', #113, .T. ) ;
#67 = CC_DESIGN_DATE_AND_TIME_ASSIGNMENT ( #90, #197, ( #207 ) ) ;
#68 = CARTESIAN_POINT ( 'NONE',  ( -6.413747168845438786E-31, 2.249639673992786412E-32, -1.836970198721029934E-16 ) ) ;
#69 = VERTEX_POINT ( 'NONE', #140 ) ;
#70 = DIRECTION ( 'NONE',  ( -3.491481338843133355E-15, 1.224646799147353207E-16, -1.000000000000000000 ) ) ;
#71 = DIRECTION ( 'NONE',  ( -3.491481338843133355E-15, 1.224646799147353207E-16, -1.000000000000000000 ) ) ;
#72 = COORDINATED_UNIVERSAL_TIME_OFFSET ( 1, 0, .AHEAD. ) ;
#73 = CIRCLE ( 'NONE', #57, 1.499999999999999556 ) ;
#74 = DIRECTION ( 'NONE',  ( 1.000000000000000000, 0.0000000000000000000, 0.0000000000000000000 ) ) ;
#75 = ADVANCED_FACE ( 'NONE', ( #81, #8 ), #115, .T. ) ;
#76 = LOCAL_TIME ( 10, 15, 42.00000000000000000, #72 ) ;
#77 = FACE_OUTER_BOUND ( 'NONE', #167, .T. ) ;
#78 = EDGE_LOOP ( 'NONE', ( #204 ) ) ;
#79 = DIRECTION ( 'NONE',  ( -4.275831445896958607E-31, -1.000000000000000000, -1.224646799147353207E-16 ) ) ;
#80 = CC_DESIGN_PERSON_AND_ORGANIZATION_ASSIGNMENT ( #26, #180, ( #207 ) ) ;
#81 = FACE_OUTER_BOUND ( 'NONE', #78, .T. ) ;
#82 = APPLICATION_CONTEXT ( 'configuration controlled 3d designs of mechanical parts and assemblies' ) ;
#83 = DIRECTION ( 'NONE',  ( 3.491481338843133355E-15, -1.596391580082713105E-16, 1.000000000000000000 ) ) ;
#84 = FACE_OUTER_BOUND ( 'NONE', #152, .T. ) ;
#85 = CYLINDRICAL_SURFACE ( 'NONE', #184, 2.999999999999999556 ) ;
#86 = LOCAL_TIME ( 10, 15, 42.00000000000000000, #147 ) ;
#87 = PERSON_AND_ORGANIZATION ( #198, #190 ) ;
#88 =( NAMED_UNIT ( * ) PLANE_ANGLE_UNIT ( ) SI_UNIT ( $, .RADIAN. ) );
#89 = TOROIDAL_SURFACE ( 'NONE', #155, 9.500000000000000000, 8.000000000000000000 ) ;
#90 = DATE_AND_TIME ( #177, #76 ) ;
#91 = PERSON_AND_ORGANIZATION ( #198, #190 ) ;
#92 = EDGE_CURVE ( 'NONE', #172, #172, #122, .T. ) ;
#93 = APPROVAL_DATE_TIME ( #46, #9 ) ;
#94 = AXIS2_PLACEMENT_3D ( 'NONE', #139, #119, #53 ) ;
#95 = DIRECTION ( 'NONE',  ( 3.491481338843133355E-15, -1.596391580082713105E-16, 1.000000000000000000 ) ) ;
#96 = CIRCLE ( 'NONE', #7, 1.499999999999999556 ) ;
#97 = CC_DESIGN_APPROVAL ( #215, ( #13 ) ) ;
#98 = CARTESIAN_POINT ( 'NONE',  ( -6.413747168845439661E-31, -4.336808689942017736E-16, -1.836970198721030181E-16 ) ) ;
#99 = DIRECTION ( 'NONE',  ( -3.491481338843133355E-15, 1.224646799147353207E-16, -1.000000000000000000 ) ) ;
#100 = DIRECTION ( 'NONE',  ( -3.491481338843133355E-15, 1.224646799147353207E-16, -1.000000000000000000 ) ) ;
#101 = CC_DESIGN_APPROVAL ( #157, ( #207 ) ) ;
#102 = CARTESIAN_POINT ( 'NONE',  ( 1.990144363140586391E-13, 2.699999999999997513, 57.00000000000000711 ) ) ;
#103 = DIRECTION ( 'NONE',  ( 3.491481338843133355E-15, -1.224646799147353207E-16, 1.000000000000000000 ) ) ;
#104 = COORDINATED_UNIVERSAL_TIME_OFFSET ( 1, 0, .AHEAD. ) ;
#105 = ADVANCED_FACE ( 'NONE', ( #192, #55 ), #219, .T. ) ;
#106 = APPROVAL_DATE_TIME ( #179, #157 ) ;
#107 = CALENDAR_DATE ( 2021, 16, 11 ) ;
#108 = CIRCLE ( 'NONE', #64, 2.999999999999999556 ) ;
#109 = PERSON_AND_ORGANIZATION_ROLE ( 'creator' ) ;
#110 = APPROVAL_STATUS ( 'not_yet_approved' ) ;
#111 = EDGE_LOOP ( 'NONE', ( #136 ) ) ;
#112 = EDGE_CURVE ( 'NONE', #43, #43, #23, .T. ) ;
#113 = EDGE_LOOP ( 'NONE', ( #183 ) ) ;
#114 = CARTESIAN_POINT ( 'NONE',  ( 1.990144363140586391E-13, -6.980486755139914489E-15, 57.00000000000000711 ) ) ;
#115 = CYLINDRICAL_SURFACE ( 'NONE', #3, 1.500000000000000222 ) ;
#116 = DIRECTION ( 'NONE',  ( -5.573771411345096081E-31, -1.000000000000000000, -1.596391580082712859E-16 ) ) ;
#117 = APPROVAL_PERSON_ORGANIZATION ( #25, #9, #200 ) ;
#118 = DIRECTION ( 'NONE',  ( 3.491481338843133355E-15, -1.596391580082713105E-16, 1.000000000000000000 ) ) ;
#119 = DIRECTION ( 'NONE',  ( 3.491481338843133355E-15, -1.224646799147353207E-16, 1.000000000000000000 ) ) ;
#120 = ADVANCED_FACE ( 'NONE', ( #169 ), #213, .T. ) ;
#121 = SECURITY_CLASSIFICATION_LEVEL ( 'unclassified' ) ;
#122 = CIRCLE ( 'NONE', #186, 1.500000000000000888 ) ;
#123 =( LENGTH_UNIT ( ) NAMED_UNIT ( * ) SI_UNIT ( .MILLI., .METRE. ) );
#124 = MECHANICAL_CONTEXT ( 'NONE', #63, 'mechanical' ) ;
#125 = UNCERTAINTY_MEASURE_WITH_UNIT (LENGTH_MEASURE( 1.000000000000000082E-05 ), #123, 'distance_accuracy_value', 'NONE');
#126 = AXIS2_PLACEMENT_3D ( 'NONE', #114, #100, #5 ) ;
#127 = LOCAL_TIME ( 10, 15, 42.00000000000000000, #104 ) ;
#128 = CC_DESIGN_APPROVAL ( #9, ( #133 ) ) ;
#129 = PRODUCT_DEFINITION_SHAPE ( 'NONE', 'NONE',  #207 ) ;
#130 = EDGE_LOOP ( 'NONE', ( #131 ) ) ;
#131 = ORIENTED_EDGE ( 'NONE', *, *, #38, .F. ) ;
#132 = CLOSED_SHELL ( 'NONE', ( #11, #75, #120 ) ) ;
#133 = SECURITY_CLASSIFICATION ( '', '', #121 ) ;
#134 = EDGE_LOOP ( 'NONE', ( #220 ) ) ;
#135 = EDGE_LOOP ( 'NONE', ( #201 ) ) ;
#136 = ORIENTED_EDGE ( 'NONE', *, *, #185, .F. ) ;
#137 = CLOSED_SHELL ( 'NONE', ( #182, #105, #196, #151, #149 ) ) ;
#138 = CARTESIAN_POINT ( 'NONE',  ( 1.990144363140586391E-13, -8.295226638383719866E-31, 57.00000000000000711 ) ) ;
#139 = CARTESIAN_POINT ( 'NONE',  ( 2.793185071074506684E-14, 2.249639673992785317E-32, 8.000000000000000000 ) ) ;
#140 = CARTESIAN_POINT ( 'NONE',  ( 2.793185071074506053E-14, -1.500000000000001332, 7.999999999999998224 ) ) ;
#141 = CC_DESIGN_PERSON_AND_ORGANIZATION_ASSIGNMENT ( #91, #148, ( #133 ) ) ;
#142 = CARTESIAN_POINT ( 'NONE',  ( 2.793185071074506053E-14, -1.734723475976807094E-15, 7.999999999999998224 ) ) ;
#143 = DIRECTION ( 'NONE',  ( 0.0000000000000000000, -1.000000000000000000, 0.0000000000000000000 ) ) ;
#144 = CC_DESIGN_PERSON_AND_ORGANIZATION_ASSIGNMENT ( #175, #150, ( #165 ) ) ;
#145 = APPROVAL_ROLE ( '' ) ;
#146 = CARTESIAN_POINT ( 'NONE',  ( 0.0000000000000000000, 0.0000000000000000000, 0.0000000000000000000 ) ) ;
#147 = COORDINATED_UNIVERSAL_TIME_OFFSET ( 1, 0, .AHEAD. ) ;
#148 = PERSON_AND_ORGANIZATION_ROLE ( 'classification_officer' ) ;
#149 = ADVANCED_FACE ( 'NONE', ( #22 ), #17, .F. ) ;
#150 = PERSON_AND_ORGANIZATION_ROLE ( 'design_owner' ) ;
#151 = ADVANCED_FACE ( 'NONE', ( #34, #21 ), #89, .F. ) ;
#152 = EDGE_LOOP ( 'NONE', ( #223 ) ) ;
#153 = AXIS2_PLACEMENT_3D ( 'NONE', #173, #71, #50 ) ;
#154 = FACE_OUTER_BOUND ( 'NONE', #32, .T. ) ;
#155 = AXIS2_PLACEMENT_3D ( 'NONE', #142, #83, #158 ) ;
#156 = DIRECTION ( 'NONE',  ( 4.275831445896958607E-31, 1.000000000000000000, 1.224646799147353207E-16 ) ) ;
#157 = APPROVAL ( #10, 'UNSPECIFIED' ) ;
#158 = DIRECTION ( 'NONE',  ( -5.695167042902854666E-31, -1.000000000000000000, -1.596391580082713105E-16 ) ) ;
#159 = CARTESIAN_POINT ( 'NONE',  ( 1.979669919124056676E-13, -6.943747351165492840E-15, 56.70000000000000995 ) ) ;
#160 = DIRECTION ( 'NONE',  ( 4.275831445896959482E-31, 1.000000000000000000, 1.224646799147353207E-16 ) ) ;
#161 = VERTEX_POINT ( 'NONE', #199 ) ;
#162 = DIRECTION ( 'NONE',  ( 0.0000000000000000000, 0.0000000000000000000, 1.000000000000000000 ) ) ;
#163 = PERSON_AND_ORGANIZATION ( #198, #190 ) ;
#164 = DATE_AND_TIME ( #194, #222 ) ;
#165 = PRODUCT ( '968672', '968672', '', ( #124 ) ) ;
#166 = DIRECTION ( 'NONE',  ( 0.0000000000000000000, 1.000000000000000000, 0.0000000000000000000 ) ) ;
#167 = EDGE_LOOP ( 'NONE', ( #14 ) ) ;
#168 = ORIENTED_EDGE ( 'NONE', *, *, #112, .T. ) ;
#169 = FACE_OUTER_BOUND ( 'NONE', #187, .T. ) ;
#170 = CARTESIAN_POINT ( 'NONE',  ( 2.793185071074506684E-14, 2.249639673992785317E-32, 8.000000000000000000 ) ) ;
#171 = DIRECTION ( 'NONE',  ( 0.0000000000000000000, -1.000000000000000000, 0.0000000000000000000 ) ) ;
#172 = VERTEX_POINT ( 'NONE', #58 ) ;
#173 = CARTESIAN_POINT ( 'NONE',  ( 1.979669919124056676E-13, -6.943747351165492840E-15, 56.70000000000000995 ) ) ;
#174 = APPROVAL_STATUS ( 'not_yet_approved' ) ;
#175 = PERSON_AND_ORGANIZATION ( #198, #190 ) ;
#176 = CC_DESIGN_DATE_AND_TIME_ASSIGNMENT ( #164, #41, ( #133 ) ) ;
#177 = CALENDAR_DATE ( 2021, 16, 11 ) ;
#178 = CC_DESIGN_PERSON_AND_ORGANIZATION_ASSIGNMENT ( #87, #217, ( #13 ) ) ;
#179 = DATE_AND_TIME ( #107, #127 ) ;
#180 = PERSON_AND_ORGANIZATION_ROLE ( 'creator' ) ;
#181 = COORDINATED_UNIVERSAL_TIME_OFFSET ( 1, 0, .AHEAD. ) ;
#182 = ADVANCED_FACE ( 'NONE', ( #154, #84 ), #85, .T. ) ;
#183 = ORIENTED_EDGE ( 'NONE', *, *, #54, .F. ) ;
#184 = AXIS2_PLACEMENT_3D ( 'NONE', #49, #70, #160 ) ;
#185 = EDGE_CURVE ( 'NONE', #161, #161, #73, .T. ) ;
#186 = AXIS2_PLACEMENT_3D ( 'NONE', #189, #118, #33 ) ;
#187 = EDGE_LOOP ( 'NONE', ( #65 ) ) ;
#188 = DIRECTION ( 'NONE',  ( 3.491481338843133355E-15, -1.596391580082713105E-16, 1.000000000000000000 ) ) ;
#189 = CARTESIAN_POINT ( 'NONE',  ( -8.360657117017651128E-31, -4.336808689942017736E-16, -2.394587370124071260E-16 ) ) ;
#190 = ORGANIZATION ( 'UNSPECIFIED', 'UNSPECIFIED', '' ) ;
#191 = DIRECTION ( 'NONE',  ( -3.491481338843133355E-15, 1.224646799147353207E-16, -1.000000000000000000 ) ) ;
#192 = FACE_BOUND ( 'NONE', #203, .T. ) ;
#193 = CARTESIAN_POINT ( 'NONE',  ( 2.793185071074506053E-14, -1.710794133060371863E-15, 7.999999999999998224 ) ) ;
#194 = CALENDAR_DATE ( 2021, 16, 11 ) ;
#195 = AXIS2_PLACEMENT_3D ( 'NONE', #146, #162, #74 ) ;
#196 = ADVANCED_FACE ( 'NONE', ( #66 ), #18, .F. ) ;
#197 = DATE_TIME_ROLE ( 'creation_date' ) ;
#198 = PERSON ( 'UNSPECIFIED', 'UNSPECIFIED', 'UNSPECIFIED', ('UNSPECIFIED'), ('UNSPECIFIED'), ('UNSPECIFIED') ) ;
#199 = CARTESIAN_POINT ( 'NONE',  ( 2.793185071074506053E-14, -1.500000000000001332, 7.999999999999998224 ) ) ;
#200 = APPROVAL_ROLE ( '' ) ;
#201 = ORIENTED_EDGE ( 'NONE', *, *, #185, .T. ) ;
#202 = AXIS2_PLACEMENT_3D ( 'NONE', #138, #191, #156 ) ;
#203 = EDGE_LOOP ( 'NONE', ( #48 ) ) ;
#204 = ORIENTED_EDGE ( 'NONE', *, *, #92, .T. ) ;
#205 = AXIS2_PLACEMENT_3D ( 'NONE', #159, #20, #209 ) ;
#206 = APPROVAL_PERSON_ORGANIZATION ( #163, #215, #145 ) ;
#207 = PRODUCT_DEFINITION ( 'UNKNOWN', '', #13, #218 ) ;
#208 = CARTESIAN_POINT ( 'NONE',  ( 4.421503566283302108E-14, 2.999999999999996891, 12.66368952654440427 ) ) ;
#209 = DIRECTION ( 'NONE',  ( 0.0000000000000000000, 1.000000000000000000, 0.0000000000000000000 ) ) ;
#210 = VERTEX_POINT ( 'NONE', #102 ) ;
#211 = ADVANCED_BREP_SHAPE_REPRESENTATION ( '968672', ( #15, #19, #195 ), #221 ) ;
#212 = DIRECTION ( 'NONE',  ( 3.491481338843133355E-15, -1.596391580082713105E-16, 1.000000000000000000 ) ) ;
#213 = PLANE ( 'NONE',  #40 ) ;
#214 = APPROVAL_DATE_TIME ( #24, #215 ) ;
#215 = APPROVAL ( #174, 'UNSPECIFIED' ) ;
#216 = CARTESIAN_POINT ( 'NONE',  ( 1.979669919124056676E-13, 2.999999999999992450, 56.70000000000000995 ) ) ;
#217 = PERSON_AND_ORGANIZATION_ROLE ( 'design_supplier' ) ;
#218 = DESIGN_CONTEXT ( 'detailed design', #82, 'design' ) ;
#219 = CONICAL_SURFACE ( 'NONE', #153, 2.999999999999999112, 0.7853981633974367327 ) ;
#220 = ORIENTED_EDGE ( 'NONE', *, *, #112, .F. ) ;
#221 =( GEOMETRIC_REPRESENTATION_CONTEXT ( 3 ) GLOBAL_UNCERTAINTY_ASSIGNED_CONTEXT ( ( #125 ) ) GLOBAL_UNIT_ASSIGNED_CONTEXT ( ( #123, #88, #59 ) ) REPRESENTATION_CONTEXT ( 'NONE', 'WORKASPACE' ) );
#222 = LOCAL_TIME ( 10, 15, 42.00000000000000000, #61 ) ;
#223 = ORIENTED_EDGE ( 'NONE', *, *, #1, .T. ) ;
ENDSEC;
END-ISO-10303-21;
