ISO-10303-21;
HEADER;
FILE_DESCRIPTION (( 'STEP AP203' ),
    '1' );
FILE_NAME ('968608.step',
    '2021-11-29T14:58:51',
    ( '' ),
    ( '' ),
    'SwSTEP 2.0',
    'SolidWorks 2019',
    '' );
FILE_SCHEMA (( 'CONFIG_CONTROL_DESIGN' ));
ENDSEC;

DATA;
#1 = CALENDAR_DATE ( 2021, 29, 11 ) ;
#2 = APPROVAL ( #249, 'UNSPECIFIED' ) ;
#3 = CARTESIAN_POINT ( 'NONE',  ( 8.728703347107831416E-16, -3.061616997868381785E-17, 0.2499999999999999445 ) ) ;
#4 = CARTESIAN_POINT ( 'NONE',  ( 1.326762908760390423E-13, 8.998558695971099120E-33, 38.00000000000000000 ) ) ;
#5 = DIRECTION ( 'NONE',  ( -3.491481338843133355E-15, 1.224646799147352961E-16, -1.000000000000000000 ) ) ;
#6 = EDGE_CURVE ( 'NONE', #251, #251, #61, .T. ) ;
#7 = DIRECTION ( 'NONE',  ( 4.275831445896957731E-31, 1.000000000000000000, 1.224646799147353207E-16 ) ) ;
#8 = CC_DESIGN_DATE_AND_TIME_ASSIGNMENT ( #136, #287, ( #255 ) ) ;
#9 = PERSON_AND_ORGANIZATION ( #230, #204 ) ;
#10 = APPROVAL_PERSON_ORGANIZATION ( #39, #118, #56 ) ;
#11 = CARTESIAN_POINT ( 'NONE',  ( 2.160503343643102299E-14, -7.578025621687426526E-16, 6.187927512621226533 ) ) ;
#12 = APPROVAL ( #174, 'UNSPECIFIED' ) ;
#13 = DIRECTION ( 'NONE',  ( 0.0000000000000000000, 1.000000000000000000, 0.0000000000000000000 ) ) ;
#14 = LOCAL_TIME ( 15, 58, 51.00000000000000000, #120 ) ;
#15 = CIRCLE ( 'NONE', #31, 0.6334999999999982867 ) ;
#16 = EDGE_LOOP ( 'NONE', ( #156 ) ) ;
#17 = FACE_OUTER_BOUND ( 'NONE', #295, .T. ) ;
#18 = APPROVAL_PERSON_ORGANIZATION ( #47, #2, #138 ) ;
#19 = DIRECTION ( 'NONE',  ( 0.0000000000000000000, -1.000000000000000000, 0.0000000000000000000 ) ) ;
#20 = PRODUCT ( '968608', '968608', '', ( #253 ) ) ;
#21 = CARTESIAN_POINT ( 'NONE',  ( 1.326762908760390423E-13, -4.653657836759941152E-15, 38.00000000000000000 ) ) ;
#22 = PRODUCT_DEFINITION_SHAPE ( 'NONE', 'NONE',  #115 ) ;
#23 = PERSON_AND_ORGANIZATION_ROLE ( 'design_owner' ) ;
#24 = CIRCLE ( 'NONE', #201, 0.6334999999999990639 ) ;
#25 = CARTESIAN_POINT ( 'NONE',  ( 2.094888803305880013E-14, 0.6334999999999982867, 6.000000000000000000 ) ) ;
#26 = ADVANCED_FACE ( 'NONE', ( #155 ), #177, .F. ) ;
#27 =( LENGTH_UNIT ( ) NAMED_UNIT ( * ) SI_UNIT ( .MILLI., .METRE. ) );
#28 = CARTESIAN_POINT ( 'NONE',  ( 2.094888803305880013E-14, -7.347880794884118750E-16, 6.000000000000000000 ) ) ;
#29 = DIRECTION ( 'NONE',  ( 0.0000000000000000000, 1.000000000000000000, 0.0000000000000000000 ) ) ;
#30 = EDGE_CURVE ( 'NONE', #180, #180, #123, .T. ) ;
#31 = AXIS2_PLACEMENT_3D ( 'NONE', #3, #74, #110 ) ;
#32 = CARTESIAN_POINT ( 'NONE',  ( 4.660183614865709749E-14, -1.634572375883072611E-15, 13.34729635533384773 ) ) ;
#33 = DIRECTION ( 'NONE',  ( -3.491481338843133355E-15, 1.224646799147352961E-16, -1.000000000000000000 ) ) ;
#34 = DIRECTION ( 'NONE',  ( 4.275831445896957731E-31, 1.000000000000000000, 1.224646799147352961E-16 ) ) ;
#35 = AXIS2_PLACEMENT_3D ( 'NONE', #36, #188, #19 ) ;
#36 = CARTESIAN_POINT ( 'NONE',  ( 6.530633275158629891E-14, -2.290637801168421019E-15, 18.70447710117931805 ) ) ;
#37 = CC_DESIGN_PERSON_AND_ORGANIZATION_ASSIGNMENT ( #186, #187, ( #291 ) ) ;
#38 = CARTESIAN_POINT ( 'NONE',  ( -3.984311938284370593E-31, 1.397508503837878601E-32, -1.141152293715117454E-16 ) ) ;
#39 = PERSON_AND_ORGANIZATION ( #230, #204 ) ;
#40 = APPROVAL_PERSON_ORGANIZATION ( #9, #12, #168 ) ;
#41 = AXIS2_PLACEMENT_3D ( 'NONE', #215, #57, #256 ) ;
#42 = EDGE_LOOP ( 'NONE', ( #263 ) ) ;
#43 = DIRECTION ( 'NONE',  ( -3.040141980090356825E-31, -1.000000000000000000, -8.557238930430208040E-17 ) ) ;
#44 = DIRECTION ( 'NONE',  ( -3.491481338843133355E-15, 1.224646799147352961E-16, -1.000000000000000000 ) ) ;
#45 = ADVANCED_FACE ( 'NONE', ( #225, #17 ), #257, .T. ) ;
#46 = VERTEX_POINT ( 'NONE', #48 ) ;
#47 = PERSON_AND_ORGANIZATION ( #230, #204 ) ;
#48 = CARTESIAN_POINT ( 'NONE',  ( 6.530633275158629891E-14, 1.499999999999995559, 18.70447710117931805 ) ) ;
#49 = APPLICATION_PROTOCOL_DEFINITION ( 'international standard', 'config_control_design', 1994, #128 ) ;
#50 = DIRECTION ( 'NONE',  ( -3.491481338843133355E-15, 1.224646799147352961E-16, -1.000000000000000000 ) ) ;
#51 = DIRECTION ( 'NONE',  ( -3.491481338843133355E-15, 1.224646799147352961E-16, -1.000000000000000000 ) ) ;
#52 =( GEOMETRIC_REPRESENTATION_CONTEXT ( 3 ) GLOBAL_UNCERTAINTY_ASSIGNED_CONTEXT ( ( #67 ) ) GLOBAL_UNIT_ASSIGNED_CONTEXT ( ( #27, #73, #98 ) ) REPRESENTATION_CONTEXT ( 'NONE', 'WORKASPACE' ) );
#53 = AXIS2_PLACEMENT_3D ( 'NONE', #146, #101, #7 ) ;
#54 = CONICAL_SURFACE ( 'NONE', #148, 1.200000000000003286, 0.7853981633974453924 ) ;
#55 = PLANE ( 'NONE',  #206 ) ;
#56 = APPROVAL_ROLE ( '' ) ;
#57 = DIRECTION ( 'NONE',  ( -3.491481338843133355E-15, 1.224646799147352961E-16, -1.000000000000000000 ) ) ;
#58 = FACE_BOUND ( 'NONE', #245, .T. ) ;
#59 = ADVANCED_FACE ( 'NONE', ( #211, #209 ), #72, .T. ) ;
#60 = ORIENTED_EDGE ( 'NONE', *, *, #30, .F. ) ;
#61 = CIRCLE ( 'NONE', #164, 0.4891624327025949071 ) ;
#62 = ORIENTED_EDGE ( 'NONE', *, *, #172, .T. ) ;
#63 = CARTESIAN_POINT ( 'NONE',  ( 1.326762908760390423E-13, 1.199999999999998845, 38.00000000000000000 ) ) ;
#64 = ORIENTED_EDGE ( 'NONE', *, *, #182, .T. ) ;
#65 = SECURITY_CLASSIFICATION_LEVEL ( 'unclassified' ) ;
#66 = CARTESIAN_POINT ( 'NONE',  ( 1.326762908760390423E-13, -4.653657836759941152E-15, 38.00000000000000000 ) ) ;
#67 = UNCERTAINTY_MEASURE_WITH_UNIT (LENGTH_MEASURE( 1.000000000000000082E-05 ), #27, 'distance_accuracy_value', 'NONE');
#68 = EDGE_CURVE ( 'NONE', #267, #267, #218, .T. ) ;
#69 = CARTESIAN_POINT ( 'NONE',  ( 4.538925740496073362E-14, 0.5249999999999985789, 13.00000000000000000 ) ) ;
#70 = AXIS2_PLACEMENT_3D ( 'NONE', #11, #80, #121 ) ;
#71 = DIRECTION ( 'NONE',  ( 1.000000000000000000, 0.0000000000000000000, 0.0000000000000000000 ) ) ;
#72 = CYLINDRICAL_SURFACE ( 'NONE', #131, 0.6334999999999986198 ) ;
#73 =( NAMED_UNIT ( * ) PLANE_ANGLE_UNIT ( ) SI_UNIT ( $, .RADIAN. ) );
#74 = DIRECTION ( 'NONE',  ( -3.491481338843133355E-15, 1.224646799147352961E-16, -1.000000000000000000 ) ) ;
#75 = FACE_OUTER_BOUND ( 'NONE', #203, .T. ) ;
#76 = DIRECTION ( 'NONE',  ( 0.0000000000000000000, 1.000000000000000000, 0.0000000000000000000 ) ) ;
#77 = AXIS2_PLACEMENT_3D ( 'NONE', #195, #50, #29 ) ;
#78 = CYLINDRICAL_SURFACE ( 'NONE', #53, 1.500000000000000444 ) ;
#79 = DATE_AND_TIME ( #150, #192 ) ;
#80 = DIRECTION ( 'NONE',  ( -3.491481338843133355E-15, 1.224646799147352961E-16, -1.000000000000000000 ) ) ;
#81 = SHAPE_DEFINITION_REPRESENTATION ( #22, #137 ) ;
#82 = EDGE_LOOP ( 'NONE', ( #112 ) ) ;
#83 = EDGE_CURVE ( 'NONE', #46, #46, #302, .T. ) ;
#84 = EDGE_LOOP ( 'NONE', ( #111 ) ) ;
#85 = EDGE_LOOP ( 'NONE', ( #293 ) ) ;
#86 = DIRECTION ( 'NONE',  ( 3.491481338843133355E-15, -1.224646799147352961E-16, 1.000000000000000000 ) ) ;
#87 = DIRECTION ( 'NONE',  ( 3.491481338843133355E-15, -1.224646799147352961E-16, 1.000000000000000000 ) ) ;
#88 = CC_DESIGN_APPROVAL ( #12, ( #291 ) ) ;
#89 = DIRECTION ( 'NONE',  ( 4.275831445896958607E-31, 1.000000000000000000, 1.224646799147352714E-16 ) ) ;
#90 = ADVANCED_FACE ( 'NONE', ( #235, #282 ), #286, .F. ) ;
#91 = DIRECTION ( 'NONE',  ( -3.491481338843133355E-15, 1.224646799147352961E-16, -1.000000000000000000 ) ) ;
#92 = PERSON_AND_ORGANIZATION_ROLE ( 'classification_officer' ) ;
#93 = CARTESIAN_POINT ( 'NONE',  ( 0.0000000000000000000, 0.0000000000000000000, 0.0000000000000000000 ) ) ;
#94 = CLOSED_SHELL ( 'NONE', ( #219, #258, #104, #90, #45, #194, #296, #159 ) ) ;
#95 = DIRECTION ( 'NONE',  ( 0.0000000000000000000, 1.000000000000000000, 0.0000000000000000000 ) ) ;
#96 = DATE_AND_TIME ( #1, #14 ) ;
#97 = CARTESIAN_POINT ( 'NONE',  ( 4.538925740496073362E-14, -1.592040838891558701E-15, 13.00000000000000000 ) ) ;
#98 =( NAMED_UNIT ( * ) SI_UNIT ( $, .STERADIAN. ) SOLID_ANGLE_UNIT ( ) );
#99 = DIRECTION ( 'NONE',  ( -3.491481338843133355E-15, 1.224646799147352961E-16, -1.000000000000000000 ) ) ;
#100 = DATE_AND_TIME ( #105, #242 ) ;
#101 = DIRECTION ( 'NONE',  ( -3.491481338843133355E-15, 1.224646799147352961E-16, -1.000000000000000000 ) ) ;
#102 = COORDINATED_UNIVERSAL_TIME_OFFSET ( 1, 0, .AHEAD. ) ;
#103 = DIRECTION ( 'NONE',  ( -4.275831445896957731E-31, -1.000000000000000000, -1.224646799147352961E-16 ) ) ;
#104 = ADVANCED_FACE ( 'NONE', ( #122, #125 ), #214, .T. ) ;
#105 = CALENDAR_DATE ( 2021, 29, 11 ) ;
#106 = AXIS2_PLACEMENT_3D ( 'NONE', #133, #87, #108 ) ;
#107 = DIRECTION ( 'NONE',  ( 3.491481338843133355E-15, -1.224646799147352961E-16, 1.000000000000000000 ) ) ;
#108 = DIRECTION ( 'NONE',  ( -4.275831445896957731E-31, -1.000000000000000000, -1.224646799147352961E-16 ) ) ;
#109 = CIRCLE ( 'NONE', #117, 0.6334999999999990639 ) ;
#110 = DIRECTION ( 'NONE',  ( 3.040141980090356825E-31, 1.000000000000000000, 8.557238930430208040E-17 ) ) ;
#111 = ORIENTED_EDGE ( 'NONE', *, *, #237, .F. ) ;
#112 = ORIENTED_EDGE ( 'NONE', *, *, #83, .F. ) ;
#113 = PERSON_AND_ORGANIZATION ( #230, #204 ) ;
#114 = EDGE_LOOP ( 'NONE', ( #62 ) ) ;
#115 = PRODUCT_DEFINITION ( 'UNKNOWN', '', #291, #134 ) ;
#116 = CC_DESIGN_APPROVAL ( #2, ( #115 ) ) ;
#117 = AXIS2_PLACEMENT_3D ( 'NONE', #28, #193, #231 ) ;
#118 = APPROVAL ( #259, 'UNSPECIFIED' ) ;
#119 = CC_DESIGN_DATE_AND_TIME_ASSIGNMENT ( #79, #126, ( #115 ) ) ;
#120 = COORDINATED_UNIVERSAL_TIME_OFFSET ( 1, 0, .AHEAD. ) ;
#121 = DIRECTION ( 'NONE',  ( 0.0000000000000000000, 1.000000000000000000, 0.0000000000000000000 ) ) ;
#122 = FACE_OUTER_BOUND ( 'NONE', #84, .T. ) ;
#123 = CIRCLE ( 'NONE', #157, 1.200000000000003286 ) ;
#124 = APPROVAL_DATE_TIME ( #100, #12 ) ;
#125 = FACE_OUTER_BOUND ( 'NONE', #114, .T. ) ;
#126 = DATE_TIME_ROLE ( 'creation_date' ) ;
#127 = CARTESIAN_POINT ( 'NONE',  ( 0.0000000000000000000, 0.0000000000000000000, 0.0000000000000000000 ) ) ;
#128 = APPLICATION_CONTEXT ( 'configuration controlled 3d designs of mechanical parts and assemblies' ) ;
#129 = EDGE_LOOP ( 'NONE', ( #221 ) ) ;
#130 = ORIENTED_EDGE ( 'NONE', *, *, #198, .T. ) ;
#131 = AXIS2_PLACEMENT_3D ( 'NONE', #93, #273, #232 ) ;
#132 = EDGE_LOOP ( 'NONE', ( #200 ) ) ;
#133 = CARTESIAN_POINT ( 'NONE',  ( -1.992155969142185296E-31, 6.987542519189393005E-33, -5.705761468575587271E-17 ) ) ;
#134 = DESIGN_CONTEXT ( 'detailed design', #128, 'design' ) ;
#135 = CIRCLE ( 'NONE', #184, 0.5250000000000001332 ) ;
#136 = DATE_AND_TIME ( #160, #213 ) ;
#137 = ADVANCED_BREP_SHAPE_REPRESENTATION ( '968608', ( #199, #299, #262 ), #52 ) ;
#138 = APPROVAL_ROLE ( '' ) ;
#139 = VERTEX_POINT ( 'NONE', #25 ) ;
#140 = AXIS2_PLACEMENT_3D ( 'NONE', #281, #196, #170 ) ;
#141 = DIRECTION ( 'NONE',  ( 0.0000000000000000000, 0.0000000000000000000, 1.000000000000000000 ) ) ;
#142 = VERTEX_POINT ( 'NONE', #69 ) ;
#143 = EDGE_CURVE ( 'NONE', #139, #139, #24, .T. ) ;
#144 = PERSON_AND_ORGANIZATION_ROLE ( 'creator' ) ;
#145 = DIRECTION ( 'NONE',  ( 4.275831445896957731E-31, 1.000000000000000000, 1.224646799147352961E-16 ) ) ;
#146 = CARTESIAN_POINT ( 'NONE',  ( 0.0000000000000000000, 0.0000000000000000000, 0.0000000000000000000 ) ) ;
#147 = AXIS2_PLACEMENT_3D ( 'NONE', #127, #5, #34 ) ;
#148 = AXIS2_PLACEMENT_3D ( 'NONE', #21, #91, #95 ) ;
#149 = CARTESIAN_POINT ( 'NONE',  ( 2.094888803305880013E-14, 4.750489111581413364E-33, 6.000000000000000000 ) ) ;
#150 = CALENDAR_DATE ( 2021, 29, 11 ) ;
#151 = FACE_OUTER_BOUND ( 'NONE', #178, .T. ) ;
#152 = DIRECTION ( 'NONE',  ( 0.0000000000000000000, 1.000000000000000000, 0.0000000000000000000 ) ) ;
#153 = ORIENTED_EDGE ( 'NONE', *, *, #237, .T. ) ;
#154 = FACE_BOUND ( 'NONE', #243, .T. ) ;
#155 = FACE_OUTER_BOUND ( 'NONE', #42, .T. ) ;
#156 = ORIENTED_EDGE ( 'NONE', *, *, #271, .F. ) ;
#157 = AXIS2_PLACEMENT_3D ( 'NONE', #66, #44, #13 ) ;
#158 = ORIENTED_EDGE ( 'NONE', *, *, #143, .F. ) ;
#159 = ADVANCED_FACE ( 'NONE', ( #260 ), #165, .F. ) ;
#160 = CALENDAR_DATE ( 2021, 29, 11 ) ;
#161 = CONICAL_SURFACE ( 'NONE', #70, 0.5249999999999992450, 0.5235987755982900449 ) ;
#162 = VERTEX_POINT ( 'NONE', #301 ) ;
#163 = CC_DESIGN_PERSON_AND_ORGANIZATION_ASSIGNMENT ( #227, #23, ( #20 ) ) ;
#164 = AXIS2_PLACEMENT_3D ( 'NONE', #38, #241, #89 ) ;
#165 = PLANE ( 'NONE',  #233 ) ;
#166 = VERTEX_POINT ( 'NONE', #190 ) ;
#167 = DIRECTION ( 'NONE',  ( -3.491481338843133355E-15, 1.224646799147352961E-16, -1.000000000000000000 ) ) ;
#168 = APPROVAL_ROLE ( '' ) ;
#169 = DIRECTION ( 'NONE',  ( -4.275831445896957731E-31, -1.000000000000000000, -1.224646799147352961E-16 ) ) ;
#170 = DIRECTION ( 'NONE',  ( 0.0000000000000000000, 1.000000000000000000, 0.0000000000000000000 ) ) ;
#171 = COORDINATED_UNIVERSAL_TIME_OFFSET ( 1, 0, .AHEAD. ) ;
#172 = EDGE_CURVE ( 'NONE', #142, #142, #135, .T. ) ;
#173 = CARTESIAN_POINT ( 'NONE',  ( 6.530633275158629891E-14, -2.290637801168421019E-15, 18.70447710117931805 ) ) ;
#174 = APPROVAL_STATUS ( 'not_yet_approved' ) ;
#175 = APPROVAL_DATE_TIME ( #290, #118 ) ;
#176 = CC_DESIGN_PERSON_AND_ORGANIZATION_ASSIGNMENT ( #274, #92, ( #255 ) ) ;
#177 = PLANE ( 'NONE',  #106 ) ;
#178 = EDGE_LOOP ( 'NONE', ( #64 ) ) ;
#179 = CALENDAR_DATE ( 2021, 29, 11 ) ;
#180 = VERTEX_POINT ( 'NONE', #63 ) ;
#181 = ORIENTED_EDGE ( 'NONE', *, *, #271, .T. ) ;
#182 = EDGE_CURVE ( 'NONE', #208, #208, #109, .T. ) ;
#183 = EDGE_LOOP ( 'NONE', ( #292 ) ) ;
#184 = AXIS2_PLACEMENT_3D ( 'NONE', #97, #99, #216 ) ;
#185 = PERSON_AND_ORGANIZATION_ROLE ( 'creator' ) ;
#186 = PERSON_AND_ORGANIZATION ( #230, #204 ) ;
#187 = PERSON_AND_ORGANIZATION_ROLE ( 'design_supplier' ) ;
#188 = DIRECTION ( 'NONE',  ( 3.491481338843133355E-15, -1.224646799147352961E-16, 1.000000000000000000 ) ) ;
#189 = CIRCLE ( 'NONE', #77, 1.500000000000003331 ) ;
#190 = CARTESIAN_POINT ( 'NONE',  ( 2.160503343643102299E-14, 0.5249999999999984679, 6.187927512621226533 ) ) ;
#191 = APPROVAL_DATE_TIME ( #96, #2 ) ;
#192 = LOCAL_TIME ( 15, 58, 51.00000000000000000, #102 ) ;
#193 = DIRECTION ( 'NONE',  ( -3.491481338843133355E-15, 1.224646799147352961E-16, -1.000000000000000000 ) ) ;
#194 = ADVANCED_FACE ( 'NONE', ( #285, #75 ), #78, .T. ) ;
#195 = CARTESIAN_POINT ( 'NONE',  ( 1.316288464743861212E-13, -4.616918432785520292E-15, 37.69999999999999574 ) ) ;
#196 = DIRECTION ( 'NONE',  ( -3.491481338843133355E-15, 1.224646799147352961E-16, -1.000000000000000000 ) ) ;
#197 = DIRECTION ( 'NONE',  ( 0.0000000000000000000, 1.000000000000000000, 0.0000000000000000000 ) ) ;
#198 = EDGE_CURVE ( 'NONE', #162, #162, #189, .T. ) ;
#199 = MANIFOLD_SOLID_BREP ( 'Corps-Déplacer/Copier1[1]', #94 ) ;
#200 = ORIENTED_EDGE ( 'NONE', *, *, #68, .F. ) ;
#201 = AXIS2_PLACEMENT_3D ( 'NONE', #254, #252, #197 ) ;
#202 = EDGE_LOOP ( 'NONE', ( #181 ) ) ;
#203 = EDGE_LOOP ( 'NONE', ( #130 ) ) ;
#204 = ORGANIZATION ( 'UNSPECIFIED', 'UNSPECIFIED', '' ) ;
#205 = CC_DESIGN_PERSON_AND_ORGANIZATION_ASSIGNMENT ( #113, #185, ( #291 ) ) ;
#206 = AXIS2_PLACEMENT_3D ( 'NONE', #149, #288, #103 ) ;
#207 = FACE_BOUND ( 'NONE', #222, .T. ) ;
#208 = VERTEX_POINT ( 'NONE', #300 ) ;
#209 = FACE_OUTER_BOUND ( 'NONE', #269, .T. ) ;
#210 = VERTEX_POINT ( 'NONE', #250 ) ;
#211 = FACE_OUTER_BOUND ( 'NONE', #16, .T. ) ;
#212 = CARTESIAN_POINT ( 'NONE',  ( 2.094888803305880013E-14, 4.750489111581413364E-33, 6.000000000000000000 ) ) ;
#213 = LOCAL_TIME ( 15, 58, 51.00000000000000000, #272 ) ;
#214 = CYLINDRICAL_SURFACE ( 'NONE', #147, 0.5249999999999996891 ) ;
#215 = CARTESIAN_POINT ( 'NONE',  ( 4.538925740496073362E-14, -1.734723475976807094E-15, 13.00000000000000000 ) ) ;
#216 = DIRECTION ( 'NONE',  ( 0.0000000000000000000, 1.000000000000000000, 0.0000000000000000000 ) ) ;
#217 = FACE_OUTER_BOUND ( 'NONE', #298, .T. ) ;
#218 = CIRCLE ( 'NONE', #224, 0.5553844939755812060 ) ;
#219 = ADVANCED_FACE ( 'NONE', ( #151 ), #283, .F. ) ;
#220 = COORDINATED_UNIVERSAL_TIME_OFFSET ( 1, 0, .AHEAD. ) ;
#221 = ORIENTED_EDGE ( 'NONE', *, *, #182, .F. ) ;
#222 = EDGE_LOOP ( 'NONE', ( #289 ) ) ;
#223 = ORIENTED_EDGE ( 'NONE', *, *, #68, .T. ) ;
#224 = AXIS2_PLACEMENT_3D ( 'NONE', #32, #167, #152 ) ;
#225 = FACE_BOUND ( 'NONE', #132, .T. ) ;
#226 = FACE_OUTER_BOUND ( 'NONE', #183, .T. ) ;
#227 = PERSON_AND_ORGANIZATION ( #230, #204 ) ;
#228 = ADVANCED_FACE ( 'NONE', ( #217 ), #55, .T. ) ;
#229 = APPLICATION_CONTEXT ( 'configuration controlled 3d designs of mechanical parts and assemblies' ) ;
#230 = PERSON ( 'UNSPECIFIED', 'UNSPECIFIED', 'UNSPECIFIED', ('UNSPECIFIED'), ('UNSPECIFIED'), ('UNSPECIFIED') ) ;
#231 = DIRECTION ( 'NONE',  ( 0.0000000000000000000, 1.000000000000000000, 0.0000000000000000000 ) ) ;
#232 = DIRECTION ( 'NONE',  ( 4.275831445896957731E-31, 1.000000000000000000, 1.224646799147352961E-16 ) ) ;
#233 = AXIS2_PLACEMENT_3D ( 'NONE', #4, #51, #145 ) ;
#234 = CONICAL_SURFACE ( 'NONE', #278, 0.6334999999999982867, 0.5235987755982897118 ) ;
#235 = FACE_OUTER_BOUND ( 'NONE', #85, .T. ) ;
#236 = FACE_OUTER_BOUND ( 'NONE', #129, .T. ) ;
#237 = EDGE_CURVE ( 'NONE', #166, #166, #270, .T. ) ;
#238 = EDGE_LOOP ( 'NONE', ( #223 ) ) ;
#239 = CARTESIAN_POINT ( 'NONE',  ( 8.728703347107831416E-16, -3.061616997868381785E-17, 0.2499999999999999445 ) ) ;
#240 = ORIENTED_EDGE ( 'NONE', *, *, #143, .T. ) ;
#241 = DIRECTION ( 'NONE',  ( -3.491481338843133355E-15, 1.224646799147352961E-16, -1.000000000000000000 ) ) ;
#242 = LOCAL_TIME ( 15, 58, 51.00000000000000000, #220 ) ;
#243 = EDGE_LOOP ( 'NONE', ( #266 ) ) ;
#244 = AXIS2_PLACEMENT_3D ( 'NONE', #212, #107, #169 ) ;
#245 = EDGE_LOOP ( 'NONE', ( #153 ) ) ;
#246 = CC_DESIGN_PERSON_AND_ORGANIZATION_ASSIGNMENT ( #279, #144, ( #115 ) ) ;
#247 = CLOSED_SHELL ( 'NONE', ( #26, #284, #59, #228 ) ) ;
#248 = CARTESIAN_POINT ( 'NONE',  ( 0.0000000000000000000, 0.0000000000000000000, 0.0000000000000000000 ) ) ;
#249 = APPROVAL_STATUS ( 'not_yet_approved' ) ;
#250 = CARTESIAN_POINT ( 'NONE',  ( 8.728703347107833388E-16, 0.6334999999999982867, 0.2500000000000000000 ) ) ;
#251 = VERTEX_POINT ( 'NONE', #276 ) ;
#252 = DIRECTION ( 'NONE',  ( -3.491481338843133355E-15, 1.224646799147352961E-16, -1.000000000000000000 ) ) ;
#253 = MECHANICAL_CONTEXT ( 'NONE', #229, 'mechanical' ) ;
#254 = CARTESIAN_POINT ( 'NONE',  ( 2.094888803305880013E-14, -7.347880794884118750E-16, 6.000000000000000000 ) ) ;
#255 = SECURITY_CLASSIFICATION ( '', '', #65 ) ;
#256 = DIRECTION ( 'NONE',  ( 4.275831445896957731E-31, 1.000000000000000000, 1.224646799147352961E-16 ) ) ;
#257 = CONICAL_SURFACE ( 'NONE', #35, 1.499999999999997780, 0.1745329251994261199 ) ;
#258 = ADVANCED_FACE ( 'NONE', ( #236, #58 ), #161, .T. ) ;
#259 = APPROVAL_STATUS ( 'not_yet_approved' ) ;
#260 = FACE_OUTER_BOUND ( 'NONE', #264, .T. ) ;
#261 = ORIENTED_EDGE ( 'NONE', *, *, #83, .T. ) ;
#262 = AXIS2_PLACEMENT_3D ( 'NONE', #248, #141, #71 ) ;
#263 = ORIENTED_EDGE ( 'NONE', *, *, #6, .T. ) ;
#264 = EDGE_LOOP ( 'NONE', ( #60 ) ) ;
#265 = PRODUCT_RELATED_PRODUCT_CATEGORY ( 'detail', '', ( #20 ) ) ;
#266 = ORIENTED_EDGE ( 'NONE', *, *, #6, .F. ) ;
#267 = VERTEX_POINT ( 'NONE', #275 ) ;
#268 = CC_DESIGN_APPROVAL ( #118, ( #255 ) ) ;
#269 = EDGE_LOOP ( 'NONE', ( #240 ) ) ;
#270 = CIRCLE ( 'NONE', #140, 0.5249999999999992450 ) ;
#271 = EDGE_CURVE ( 'NONE', #210, #210, #15, .T. ) ;
#272 = COORDINATED_UNIVERSAL_TIME_OFFSET ( 1, 0, .AHEAD. ) ;
#273 = DIRECTION ( 'NONE',  ( -3.491481338843133355E-15, 1.224646799147352961E-16, -1.000000000000000000 ) ) ;
#274 = PERSON_AND_ORGANIZATION ( #230, #204 ) ;
#275 = CARTESIAN_POINT ( 'NONE',  ( 4.660183614865709749E-14, 0.5553844939755795407, 13.34729635533384773 ) ) ;
#276 = CARTESIAN_POINT ( 'NONE',  ( -1.892735826383160919E-31, 0.4891624327025949071, -5.421010862427522170E-17 ) ) ;
#277 = AXIS2_PLACEMENT_3D ( 'NONE', #173, #33, #76 ) ;
#278 = AXIS2_PLACEMENT_3D ( 'NONE', #239, #86, #43 ) ;
#279 = PERSON_AND_ORGANIZATION ( #230, #204 ) ;
#280 = LOCAL_TIME ( 15, 58, 51.00000000000000000, #171 ) ;
#281 = CARTESIAN_POINT ( 'NONE',  ( 2.160503343643102299E-14, -7.578025621687426526E-16, 6.187927512621226533 ) ) ;
#282 = FACE_OUTER_BOUND ( 'NONE', #238, .T. ) ;
#283 = PLANE ( 'NONE',  #244 ) ;
#284 = ADVANCED_FACE ( 'NONE', ( #154, #294 ), #234, .T. ) ;
#285 = FACE_OUTER_BOUND ( 'NONE', #82, .T. ) ;
#286 = TOROIDAL_SURFACE ( 'NONE', #41, 2.525000000000000355, 2.000000000000000444 ) ;
#287 = DATE_TIME_ROLE ( 'classification_date' ) ;
#288 = DIRECTION ( 'NONE',  ( 3.491481338843133355E-15, -1.224646799147352961E-16, 1.000000000000000000 ) ) ;
#289 = ORIENTED_EDGE ( 'NONE', *, *, #30, .T. ) ;
#290 = DATE_AND_TIME ( #179, #280 ) ;
#291 = PRODUCT_DEFINITION_FORMATION_WITH_SPECIFIED_SOURCE ( 'ANY', '', #20, .NOT_KNOWN. ) ;
#292 = ORIENTED_EDGE ( 'NONE', *, *, #198, .F. ) ;
#293 = ORIENTED_EDGE ( 'NONE', *, *, #172, .F. ) ;
#294 = FACE_OUTER_BOUND ( 'NONE', #202, .T. ) ;
#295 = EDGE_LOOP ( 'NONE', ( #261 ) ) ;
#296 = ADVANCED_FACE ( 'NONE', ( #226, #207 ), #54, .T. ) ;
#297 = CC_DESIGN_SECURITY_CLASSIFICATION ( #255, ( #291 ) ) ;
#298 = EDGE_LOOP ( 'NONE', ( #158 ) ) ;
#299 = MANIFOLD_SOLID_BREP ( 'Corps-Déplacer/Copier1[2]', #247 ) ;
#300 = CARTESIAN_POINT ( 'NONE',  ( 2.094888803305880013E-14, 0.6334999999999982867, 6.000000000000000000 ) ) ;
#301 = CARTESIAN_POINT ( 'NONE',  ( 1.316288464743861212E-13, 1.499999999999998668, 37.69999999999999574 ) ) ;
#302 = CIRCLE ( 'NONE', #277, 1.499999999999997780 ) ;
#303 = APPLICATION_PROTOCOL_DEFINITION ( 'international standard', 'config_control_design', 1994, #229 ) ;
ENDSEC;
END-ISO-10303-21;
