ISO-10303-21;
HEADER;
FILE_DESCRIPTION (( 'STEP AP203' ),
    '1' );
FILE_NAME ('968607.step',
    '2021-11-29T14:58:50',
    ( '' ),
    ( '' ),
    'SwSTEP 2.0',
    'SolidWorks 2019',
    '' );
FILE_SCHEMA (( 'CONFIG_CONTROL_DESIGN' ));
ENDSEC;

DATA;
#1 = PERSON_AND_ORGANIZATION ( #195, #279 ) ;
#2 = CARTESIAN_POINT ( 'NONE',  ( 8.728703347107833388E-16, -3.061616997868382402E-17, 0.2500000000000000000 ) ) ;
#3 = AXIS2_PLACEMENT_3D ( 'NONE', #224, #153, #180 ) ;
#4 = DATE_AND_TIME ( #243, #58 ) ;
#5 = VERTEX_POINT ( 'NONE', #102 ) ;
#6 = CARTESIAN_POINT ( 'NONE',  ( 0.0000000000000000000, 0.0000000000000000000, 0.0000000000000000000 ) ) ;
#7 = COORDINATED_UNIVERSAL_TIME_OFFSET ( 1, 0, .AHEAD. ) ;
#8 = DIRECTION ( 'NONE',  ( -3.491481338843133355E-15, 1.224646799147352961E-16, -1.000000000000000000 ) ) ;
#9 = ADVANCED_BREP_SHAPE_REPRESENTATION ( '968607', ( #300, #101, #248 ), #113 ) ;
#10 = DIRECTION ( 'NONE',  ( 4.275831445896957731E-31, 1.000000000000000000, 1.224646799147352961E-16 ) ) ;
#11 = FACE_OUTER_BOUND ( 'NONE', #177, .T. ) ;
#12 = ORIENTED_EDGE ( 'NONE', *, *, #276, .F. ) ;
#13 = PERSON_AND_ORGANIZATION_ROLE ( 'creator' ) ;
#14 = AXIS2_PLACEMENT_3D ( 'NONE', #287, #245, #80 ) ;
#15 = CARTESIAN_POINT ( 'NONE',  ( 2.172598189788212001E-14, -7.620448631236423364E-16, 6.222568528772605134 ) ) ;
#16 = PERSON_AND_ORGANIZATION ( #195, #279 ) ;
#17 = CC_DESIGN_DATE_AND_TIME_ASSIGNMENT ( #107, #227, ( #144 ) ) ;
#18 = APPROVAL_PERSON_ORGANIZATION ( #246, #292, #268 ) ;
#19 = ORIENTED_EDGE ( 'NONE', *, *, #192, .F. ) ;
#20 = EDGE_CURVE ( 'NONE', #223, #223, #123, .T. ) ;
#21 = DIRECTION ( 'NONE',  ( -3.491481338843133355E-15, 1.224646799147352961E-16, -1.000000000000000000 ) ) ;
#22 = APPLICATION_PROTOCOL_DEFINITION ( 'international standard', 'config_control_design', 1994, #45 ) ;
#23 = AXIS2_PLACEMENT_3D ( 'NONE', #179, #28, #269 ) ;
#24 = DIRECTION ( 'NONE',  ( 0.0000000000000000000, 1.000000000000000000, 0.0000000000000000000 ) ) ;
#25 = APPROVAL_STATUS ( 'not_yet_approved' ) ;
#26 = CARTESIAN_POINT ( 'NONE',  ( 8.728703347107833388E-16, -3.061616997868382402E-17, 0.2500000000000000000 ) ) ;
#27 = EDGE_LOOP ( 'NONE', ( #194 ) ) ;
#28 = DIRECTION ( 'NONE',  ( 3.491481338843133355E-15, -1.224646799147352961E-16, 1.000000000000000000 ) ) ;
#29 = FACE_OUTER_BOUND ( 'NONE', #189, .T. ) ;
#30 = AXIS2_PLACEMENT_3D ( 'NONE', #176, #284, #86 ) ;
#31 = DIRECTION ( 'NONE',  ( -3.491481338843133355E-15, 1.224646799147352961E-16, -1.000000000000000000 ) ) ;
#32 = CALENDAR_DATE ( 2021, 29, 11 ) ;
#33 = CARTESIAN_POINT ( 'NONE',  ( 2.172598189788212001E-14, 0.4949999999999984968, 6.222568528772605134 ) ) ;
#34 = ORIENTED_EDGE ( 'NONE', *, *, #20, .T. ) ;
#35 = DIRECTION ( 'NONE',  ( -3.491481338843133355E-15, 1.224646799147352961E-16, -1.000000000000000000 ) ) ;
#36 = PRODUCT_DEFINITION ( 'UNKNOWN', '', #119, #143 ) ;
#37 = EDGE_LOOP ( 'NONE', ( #160 ) ) ;
#38 = CARTESIAN_POINT ( 'NONE',  ( 2.094888803305880013E-14, 0.6234999999999992770, 6.000000000000000000 ) ) ;
#39 = ORIENTED_EDGE ( 'NONE', *, *, #147, .F. ) ;
#40 = CC_DESIGN_DATE_AND_TIME_ASSIGNMENT ( #96, #197, ( #36 ) ) ;
#41 = AXIS2_PLACEMENT_3D ( 'NONE', #92, #21, #263 ) ;
#42 = AXIS2_PLACEMENT_3D ( 'NONE', #182, #137, #286 ) ;
#43 =( NAMED_UNIT ( * ) SI_UNIT ( $, .STERADIAN. ) SOLID_ANGLE_UNIT ( ) );
#44 = ADVANCED_FACE ( 'NONE', ( #56, #210 ), #229, .T. ) ;
#45 = APPLICATION_CONTEXT ( 'configuration controlled 3d designs of mechanical parts and assemblies' ) ;
#46 = CARTESIAN_POINT ( 'NONE',  ( -1.970776811912700582E-31, 6.912554530056299577E-33, -5.644529128618218514E-17 ) ) ;
#47 = CC_DESIGN_APPROVAL ( #219, ( #119 ) ) ;
#48 = CARTESIAN_POINT ( 'NONE',  ( 4.660183614865709749E-14, -1.634572375883072611E-15, 13.34729635533384773 ) ) ;
#49 = DIRECTION ( 'NONE',  ( -3.491481338843133355E-15, 1.224646799147352961E-16, -1.000000000000000000 ) ) ;
#50 = COORDINATED_UNIVERSAL_TIME_OFFSET ( 1, 0, .AHEAD. ) ;
#51 = MECHANICAL_CONTEXT ( 'NONE', #45, 'mechanical' ) ;
#52 = CARTESIAN_POINT ( 'NONE',  ( 2.094888803305880013E-14, 0.6234999999999992770, 6.000000000000000000 ) ) ;
#53 = CC_DESIGN_PERSON_AND_ORGANIZATION_ASSIGNMENT ( #114, #183, ( #119 ) ) ;
#54 = APPROVAL_DATE_TIME ( #265, #219 ) ;
#55 = CARTESIAN_POINT ( 'NONE',  ( -1.892735826383161356E-31, 0.4791624327025947871, -5.421010862427522170E-17 ) ) ;
#56 = FACE_OUTER_BOUND ( 'NONE', #131, .T. ) ;
#57 = SHAPE_DEFINITION_REPRESENTATION ( #72, #9 ) ;
#58 = LOCAL_TIME ( 15, 58, 50.00000000000000000, #145 ) ;
#59 = DIRECTION ( 'NONE',  ( 3.491481338843133355E-15, -1.224646799147352961E-16, 1.000000000000000000 ) ) ;
#60 = EDGE_LOOP ( 'NONE', ( #141 ) ) ;
#61 = FACE_OUTER_BOUND ( 'NONE', #280, .T. ) ;
#62 = DIRECTION ( 'NONE',  ( -3.491481338843133355E-15, 1.224646799147352961E-16, -1.000000000000000000 ) ) ;
#63 = CIRCLE ( 'NONE', #87, 0.4791624327025947871 ) ;
#64 = AXIS2_PLACEMENT_3D ( 'NONE', #115, #62, #209 ) ;
#65 = EDGE_LOOP ( 'NONE', ( #222 ) ) ;
#66 = PLANE ( 'NONE',  #186 ) ;
#67 = AXIS2_PLACEMENT_3D ( 'NONE', #271, #252, #206 ) ;
#68 = UNCERTAINTY_MEASURE_WITH_UNIT (LENGTH_MEASURE( 1.000000000000000082E-05 ), #103, 'distance_accuracy_value', 'NONE');
#69 = DIRECTION ( 'NONE',  ( -4.275831445896957731E-31, -1.000000000000000000, -1.224646799147352961E-16 ) ) ;
#70 = LOCAL_TIME ( 15, 58, 50.00000000000000000, #74 ) ;
#71 = EDGE_CURVE ( 'NONE', #264, #264, #190, .T. ) ;
#72 = PRODUCT_DEFINITION_SHAPE ( 'NONE', 'NONE',  #36 ) ;
#73 = ORIENTED_EDGE ( 'NONE', *, *, #20, .F. ) ;
#74 = COORDINATED_UNIVERSAL_TIME_OFFSET ( 1, 0, .AHEAD. ) ;
#75 = AXIS2_PLACEMENT_3D ( 'NONE', #157, #59, #225 ) ;
#76 = DIRECTION ( 'NONE',  ( 4.275831445896957731E-31, 1.000000000000000000, 1.224646799147353207E-16 ) ) ;
#77 = CARTESIAN_POINT ( 'NONE',  ( 0.0000000000000000000, 0.0000000000000000000, 0.0000000000000000000 ) ) ;
#78 = COORDINATED_UNIVERSAL_TIME_OFFSET ( 1, 0, .AHEAD. ) ;
#79 = VERTEX_POINT ( 'NONE', #55 ) ;
#80 = DIRECTION ( 'NONE',  ( 0.0000000000000000000, 1.000000000000000000, 0.0000000000000000000 ) ) ;
#81 = ORIENTED_EDGE ( 'NONE', *, *, #82, .F. ) ;
#82 = EDGE_CURVE ( 'NONE', #5, #5, #138, .T. ) ;
#83 = APPROVAL_STATUS ( 'not_yet_approved' ) ;
#84 = FACE_BOUND ( 'NONE', #117, .T. ) ;
#85 = CARTESIAN_POINT ( 'NONE',  ( 1.326762908760390423E-13, 1.199999999999998845, 38.00000000000000000 ) ) ;
#86 = DIRECTION ( 'NONE',  ( 0.0000000000000000000, 1.000000000000000000, 0.0000000000000000000 ) ) ;
#87 = AXIS2_PLACEMENT_3D ( 'NONE', #282, #95, #278 ) ;
#88 = VERTEX_POINT ( 'NONE', #164 ) ;
#89 = CC_DESIGN_PERSON_AND_ORGANIZATION_ASSIGNMENT ( #151, #149, ( #301 ) ) ;
#90 = CIRCLE ( 'NONE', #199, 0.6235000000000000542 ) ;
#91 = ORIENTED_EDGE ( 'NONE', *, *, #147, .T. ) ;
#92 = CARTESIAN_POINT ( 'NONE',  ( 1.326762908760390423E-13, -4.653657836759941152E-15, 38.00000000000000000 ) ) ;
#93 = EDGE_LOOP ( 'NONE', ( #174 ) ) ;
#94 = CIRCLE ( 'NONE', #166, 0.5253844939755821786 ) ;
#95 = DIRECTION ( 'NONE',  ( -3.491481338843133355E-15, 1.224646799147352961E-16, -1.000000000000000000 ) ) ;
#96 = DATE_AND_TIME ( #170, #70 ) ;
#97 = ADVANCED_FACE ( 'NONE', ( #29, #226 ), #267, .T. ) ;
#98 = DIRECTION ( 'NONE',  ( 3.088901274077366575E-31, 1.000000000000000000, 8.694484141824424027E-17 ) ) ;
#99 = LOCAL_TIME ( 15, 58, 50.00000000000000000, #78 ) ;
#100 = PERSON_AND_ORGANIZATION ( #195, #279 ) ;
#101 = MANIFOLD_SOLID_BREP ( 'Corps-Déplacer/Copier1[2]', #125 ) ;
#102 = CARTESIAN_POINT ( 'NONE',  ( 1.316288464743861212E-13, 1.499999999999998668, 37.69999999999999574 ) ) ;
#103 =( LENGTH_UNIT ( ) NAMED_UNIT ( * ) SI_UNIT ( .MILLI., .METRE. ) );
#104 = PLANE ( 'NONE',  #23 ) ;
#105 = ADVANCED_FACE ( 'NONE', ( #216, #240 ), #185, .T. ) ;
#106 = DIRECTION ( 'NONE',  ( -3.491481338843133355E-15, 1.224646799147352961E-16, -1.000000000000000000 ) ) ;
#107 = DATE_AND_TIME ( #32, #262 ) ;
#108 = CARTESIAN_POINT ( 'NONE',  ( 8.728703347107835360E-16, 0.6234999999999992770, 0.2500000000000000555 ) ) ;
#109 = CARTESIAN_POINT ( 'NONE',  ( 2.094888803305880013E-14, -7.347880794884118750E-16, 6.000000000000000000 ) ) ;
#110 = CLOSED_SHELL ( 'NONE', ( #257, #231, #44, #299, #165, #201, #105, #171 ) ) ;
#111 = DIRECTION ( 'NONE',  ( -3.491481338843133355E-15, 1.224646799147352961E-16, -1.000000000000000000 ) ) ;
#112 =( NAMED_UNIT ( * ) PLANE_ANGLE_UNIT ( ) SI_UNIT ( $, .RADIAN. ) );
#113 =( GEOMETRIC_REPRESENTATION_CONTEXT ( 3 ) GLOBAL_UNCERTAINTY_ASSIGNED_CONTEXT ( ( #68 ) ) GLOBAL_UNIT_ASSIGNED_CONTEXT ( ( #103, #112, #43 ) ) REPRESENTATION_CONTEXT ( 'NONE', 'WORKASPACE' ) );
#114 = PERSON_AND_ORGANIZATION ( #195, #279 ) ;
#115 = CARTESIAN_POINT ( 'NONE',  ( 4.538925740496073362E-14, -1.734723475976807094E-15, 13.00000000000000000 ) ) ;
#116 = PERSON_AND_ORGANIZATION_ROLE ( 'classification_officer' ) ;
#117 = EDGE_LOOP ( 'NONE', ( #34 ) ) ;
#118 = CC_DESIGN_PERSON_AND_ORGANIZATION_ASSIGNMENT ( #1, #302, ( #36 ) ) ;
#119 = PRODUCT_DEFINITION_FORMATION_WITH_SPECIFIED_SOURCE ( 'ANY', '', #301, .NOT_KNOWN. ) ;
#120 = VERTEX_POINT ( 'NONE', #85 ) ;
#121 = EDGE_LOOP ( 'NONE', ( #39 ) ) ;
#122 = EDGE_LOOP ( 'NONE', ( #213 ) ) ;
#123 = CIRCLE ( 'NONE', #277, 0.4949999999999992184 ) ;
#124 = LOCAL_TIME ( 15, 58, 50.00000000000000000, #7 ) ;
#125 = CLOSED_SHELL ( 'NONE', ( #142, #303, #97, #255 ) ) ;
#126 = AXIS2_PLACEMENT_3D ( 'NONE', #2, #202, #98 ) ;
#127 = APPROVAL_ROLE ( '' ) ;
#128 = DIRECTION ( 'NONE',  ( -3.088901274077366575E-31, -1.000000000000000000, -8.694484141824424027E-17 ) ) ;
#129 = DIRECTION ( 'NONE',  ( 4.275831445896956855E-31, 1.000000000000000000, 1.224646799147352961E-16 ) ) ;
#130 = PLANE ( 'NONE',  #75 ) ;
#131 = EDGE_LOOP ( 'NONE', ( #73 ) ) ;
#132 = EDGE_CURVE ( 'NONE', #79, #79, #63, .T. ) ;
#133 = EDGE_LOOP ( 'NONE', ( #81 ) ) ;
#134 = DATE_AND_TIME ( #205, #124 ) ;
#135 = CYLINDRICAL_SURFACE ( 'NONE', #274, 1.500000000000000444 ) ;
#136 = DIRECTION ( 'NONE',  ( 0.0000000000000000000, 1.000000000000000000, 0.0000000000000000000 ) ) ;
#137 = DIRECTION ( 'NONE',  ( -3.491481338843133355E-15, 1.224646799147352961E-16, -1.000000000000000000 ) ) ;
#138 = CIRCLE ( 'NONE', #296, 1.500000000000003331 ) ;
#139 = EDGE_LOOP ( 'NONE', ( #214 ) ) ;
#140 = CIRCLE ( 'NONE', #42, 0.4950000000000001066 ) ;
#141 = ORIENTED_EDGE ( 'NONE', *, *, #132, .T. ) ;
#142 = ADVANCED_FACE ( 'NONE', ( #188 ), #66, .F. ) ;
#143 = DESIGN_CONTEXT ( 'detailed design', #193, 'design' ) ;
#144 = SECURITY_CLASSIFICATION ( '', '', #236 ) ;
#145 = COORDINATED_UNIVERSAL_TIME_OFFSET ( 1, 0, .AHEAD. ) ;
#146 = APPROVAL_DATE_TIME ( #4, #249 ) ;
#147 = EDGE_CURVE ( 'NONE', #155, #155, #94, .T. ) ;
#148 = DIRECTION ( 'NONE',  ( 3.491481338843133355E-15, -1.224646799147352961E-16, 1.000000000000000000 ) ) ;
#149 = PERSON_AND_ORGANIZATION_ROLE ( 'design_owner' ) ;
#150 = FACE_OUTER_BOUND ( 'NONE', #122, .T. ) ;
#151 = PERSON_AND_ORGANIZATION ( #195, #279 ) ;
#152 = DIRECTION ( 'NONE',  ( 0.0000000000000000000, -1.000000000000000000, 0.0000000000000000000 ) ) ;
#153 = DIRECTION ( 'NONE',  ( -3.491481338843133355E-15, 1.224646799147352961E-16, -1.000000000000000000 ) ) ;
#154 = CC_DESIGN_PERSON_AND_ORGANIZATION_ASSIGNMENT ( #16, #116, ( #144 ) ) ;
#155 = VERTEX_POINT ( 'NONE', #295 ) ;
#156 = AXIS2_PLACEMENT_3D ( 'NONE', #217, #168, #152 ) ;
#157 = CARTESIAN_POINT ( 'NONE',  ( 2.094888803305880013E-14, 4.675501122448328831E-33, 6.000000000000000000 ) ) ;
#158 = VERTEX_POINT ( 'NONE', #108 ) ;
#159 = DIRECTION ( 'NONE',  ( 0.0000000000000000000, 1.000000000000000000, 0.0000000000000000000 ) ) ;
#160 = ORIENTED_EDGE ( 'NONE', *, *, #82, .T. ) ;
#161 = FACE_BOUND ( 'NONE', #139, .T. ) ;
#162 = EDGE_LOOP ( 'NONE', ( #253 ) ) ;
#163 = CC_DESIGN_APPROVAL ( #292, ( #144 ) ) ;
#164 = CARTESIAN_POINT ( 'NONE',  ( 6.590036799080177965E-14, 1.499999999999995559, 18.87461555576785699 ) ) ;
#165 = ADVANCED_FACE ( 'NONE', ( #298, #150 ), #207, .T. ) ;
#166 = AXIS2_PLACEMENT_3D ( 'NONE', #48, #281, #24 ) ;
#167 = APPROVAL_PERSON_ORGANIZATION ( #169, #249, #127 ) ;
#168 = DIRECTION ( 'NONE',  ( 3.491481338843133355E-15, -1.224646799147352961E-16, 1.000000000000000000 ) ) ;
#169 = PERSON_AND_ORGANIZATION ( #195, #279 ) ;
#170 = CALENDAR_DATE ( 2021, 29, 11 ) ;
#171 = ADVANCED_FACE ( 'NONE', ( #11 ), #266, .F. ) ;
#172 = CC_DESIGN_SECURITY_CLASSIFICATION ( #144, ( #119 ) ) ;
#173 = FACE_OUTER_BOUND ( 'NONE', #65, .T. ) ;
#174 = ORIENTED_EDGE ( 'NONE', *, *, #242, .F. ) ;
#175 = CALENDAR_DATE ( 2021, 29, 11 ) ;
#176 = CARTESIAN_POINT ( 'NONE',  ( 1.326762908760390423E-13, -4.653657836759941152E-15, 38.00000000000000000 ) ) ;
#177 = EDGE_LOOP ( 'NONE', ( #218 ) ) ;
#178 = VERTEX_POINT ( 'NONE', #235 ) ;
#179 = CARTESIAN_POINT ( 'NONE',  ( 2.094888803305880013E-14, 4.675501122448328831E-33, 6.000000000000000000 ) ) ;
#180 = DIRECTION ( 'NONE',  ( 0.0000000000000000000, 1.000000000000000000, 0.0000000000000000000 ) ) ;
#181 = APPROVAL_DATE_TIME ( #134, #292 ) ;
#182 = CARTESIAN_POINT ( 'NONE',  ( 4.538925740496073362E-14, -1.592040838891558701E-15, 13.00000000000000000 ) ) ;
#183 = PERSON_AND_ORGANIZATION_ROLE ( 'design_supplier' ) ;
#184 = FACE_OUTER_BOUND ( 'NONE', #93, .T. ) ;
#185 = CONICAL_SURFACE ( 'NONE', #41, 1.200000000000003286, 0.7853981633974453924 ) ;
#186 = AXIS2_PLACEMENT_3D ( 'NONE', #46, #148, #69 ) ;
#187 = EDGE_CURVE ( 'NONE', #88, #88, #256, .T. ) ;
#188 = FACE_OUTER_BOUND ( 'NONE', #60, .T. ) ;
#189 = EDGE_LOOP ( 'NONE', ( #12 ) ) ;
#190 = CIRCLE ( 'NONE', #3, 0.6235000000000000542 ) ;
#191 = CC_DESIGN_APPROVAL ( #249, ( #36 ) ) ;
#192 = EDGE_CURVE ( 'NONE', #254, #254, #90, .T. ) ;
#193 = APPLICATION_CONTEXT ( 'configuration controlled 3d designs of mechanical parts and assemblies' ) ;
#194 = ORIENTED_EDGE ( 'NONE', *, *, #187, .F. ) ;
#195 = PERSON ( 'UNSPECIFIED', 'UNSPECIFIED', 'UNSPECIFIED', ('UNSPECIFIED'), ('UNSPECIFIED'), ('UNSPECIFIED') ) ;
#196 = DIRECTION ( 'NONE',  ( 0.0000000000000000000, 0.0000000000000000000, 1.000000000000000000 ) ) ;
#197 = DATE_TIME_ROLE ( 'creation_date' ) ;
#198 = CARTESIAN_POINT ( 'NONE',  ( 0.0000000000000000000, 0.0000000000000000000, 0.0000000000000000000 ) ) ;
#199 = AXIS2_PLACEMENT_3D ( 'NONE', #109, #8, #204 ) ;
#200 = APPROVAL_STATUS ( 'not_yet_approved' ) ;
#201 = ADVANCED_FACE ( 'NONE', ( #250, #291 ), #135, .T. ) ;
#202 = DIRECTION ( 'NONE',  ( -3.491481338843133355E-15, 1.224646799147352961E-16, -1.000000000000000000 ) ) ;
#203 = DIRECTION ( 'NONE',  ( -3.491481338843133355E-15, 1.224646799147352961E-16, -1.000000000000000000 ) ) ;
#204 = DIRECTION ( 'NONE',  ( 0.0000000000000000000, 1.000000000000000000, 0.0000000000000000000 ) ) ;
#205 = CALENDAR_DATE ( 2021, 29, 11 ) ;
#206 = DIRECTION ( 'NONE',  ( 4.275831445896957731E-31, 1.000000000000000000, 1.224646799147352961E-16 ) ) ;
#207 = CONICAL_SURFACE ( 'NONE', #156, 1.499999999999997780, 0.1745329251994259534 ) ;
#208 = DIRECTION ( 'NONE',  ( 0.0000000000000000000, 1.000000000000000000, 0.0000000000000000000 ) ) ;
#209 = DIRECTION ( 'NONE',  ( 4.275831445896957731E-31, 1.000000000000000000, 1.224646799147352961E-16 ) ) ;
#210 = FACE_OUTER_BOUND ( 'NONE', #162, .T. ) ;
#211 = EDGE_LOOP ( 'NONE', ( #297 ) ) ;
#212 = CC_DESIGN_PERSON_AND_ORGANIZATION_ASSIGNMENT ( #232, #13, ( #119 ) ) ;
#213 = ORIENTED_EDGE ( 'NONE', *, *, #187, .T. ) ;
#214 = ORIENTED_EDGE ( 'NONE', *, *, #132, .F. ) ;
#215 = AXIS2_PLACEMENT_3D ( 'NONE', #288, #35, #159 ) ;
#216 = FACE_OUTER_BOUND ( 'NONE', #133, .T. ) ;
#217 = CARTESIAN_POINT ( 'NONE',  ( 6.590036799080177965E-14, -2.311473752550794145E-15, 18.87461555576785699 ) ) ;
#218 = ORIENTED_EDGE ( 'NONE', *, *, #239, .F. ) ;
#219 = APPROVAL ( #200, 'UNSPECIFIED' ) ;
#220 = CARTESIAN_POINT ( 'NONE',  ( 0.0000000000000000000, 0.0000000000000000000, 0.0000000000000000000 ) ) ;
#221 = TOROIDAL_SURFACE ( 'NONE', #64, 2.495000000000000107, 2.000000000000000000 ) ;
#222 = ORIENTED_EDGE ( 'NONE', *, *, #276, .T. ) ;
#223 = VERTEX_POINT ( 'NONE', #33 ) ;
#224 = CARTESIAN_POINT ( 'NONE',  ( 2.094888803305880013E-14, -7.347880794884118750E-16, 6.000000000000000000 ) ) ;
#225 = DIRECTION ( 'NONE',  ( -4.275831445896957731E-31, -1.000000000000000000, -1.224646799147352961E-16 ) ) ;
#226 = FACE_OUTER_BOUND ( 'NONE', #251, .T. ) ;
#227 = DATE_TIME_ROLE ( 'classification_date' ) ;
#228 = FACE_OUTER_BOUND ( 'NONE', #211, .T. ) ;
#229 = CYLINDRICAL_SURFACE ( 'NONE', #260, 0.4949999999999996625 ) ;
#230 = DIRECTION ( 'NONE',  ( 3.491481338843133355E-15, -1.224646799147352961E-16, 1.000000000000000000 ) ) ;
#231 = ADVANCED_FACE ( 'NONE', ( #61, #84 ), #234, .T. ) ;
#232 = PERSON_AND_ORGANIZATION ( #195, #279 ) ;
#233 = FACE_OUTER_BOUND ( 'NONE', #275, .T. ) ;
#234 = CONICAL_SURFACE ( 'NONE', #14, 0.4949999999999992184, 0.5235987755982933756 ) ;
#235 = CARTESIAN_POINT ( 'NONE',  ( 4.538925740496073362E-14, 0.4949999999999984968, 13.00000000000000000 ) ) ;
#236 = SECURITY_CLASSIFICATION_LEVEL ( 'unclassified' ) ;
#237 = ORIENTED_EDGE ( 'NONE', *, *, #71, .T. ) ;
#238 = EDGE_LOOP ( 'NONE', ( #293 ) ) ;
#239 = EDGE_CURVE ( 'NONE', #120, #120, #289, .T. ) ;
#240 = FACE_BOUND ( 'NONE', #238, .T. ) ;
#241 = CONICAL_SURFACE ( 'NONE', #244, 0.6234999999999992770, 0.5235987755982928205 ) ;
#242 = EDGE_CURVE ( 'NONE', #178, #178, #140, .T. ) ;
#243 = CALENDAR_DATE ( 2021, 29, 11 ) ;
#244 = AXIS2_PLACEMENT_3D ( 'NONE', #26, #230, #128 ) ;
#245 = DIRECTION ( 'NONE',  ( -3.491481338843133355E-15, 1.224646799147352961E-16, -1.000000000000000000 ) ) ;
#246 = PERSON_AND_ORGANIZATION ( #195, #279 ) ;
#247 = FACE_OUTER_BOUND ( 'NONE', #272, .T. ) ;
#248 = AXIS2_PLACEMENT_3D ( 'NONE', #220, #196, #261 ) ;
#249 = APPROVAL ( #25, 'UNSPECIFIED' ) ;
#250 = FACE_OUTER_BOUND ( 'NONE', #27, .T. ) ;
#251 = EDGE_LOOP ( 'NONE', ( #237 ) ) ;
#252 = DIRECTION ( 'NONE',  ( -3.491481338843133355E-15, 1.224646799147352961E-16, -1.000000000000000000 ) ) ;
#253 = ORIENTED_EDGE ( 'NONE', *, *, #242, .T. ) ;
#254 = VERTEX_POINT ( 'NONE', #38 ) ;
#255 = ADVANCED_FACE ( 'NONE', ( #228 ), #104, .T. ) ;
#256 = CIRCLE ( 'NONE', #215, 1.499999999999997780 ) ;
#257 = ADVANCED_FACE ( 'NONE', ( #233 ), #130, .F. ) ;
#258 = ORIENTED_EDGE ( 'NONE', *, *, #192, .T. ) ;
#259 = APPLICATION_PROTOCOL_DEFINITION ( 'international standard', 'config_control_design', 1994, #193 ) ;
#260 = AXIS2_PLACEMENT_3D ( 'NONE', #77, #49, #129 ) ;
#261 = DIRECTION ( 'NONE',  ( 1.000000000000000000, 0.0000000000000000000, 0.0000000000000000000 ) ) ;
#262 = LOCAL_TIME ( 15, 58, 50.00000000000000000, #50 ) ;
#263 = DIRECTION ( 'NONE',  ( 0.0000000000000000000, 1.000000000000000000, 0.0000000000000000000 ) ) ;
#264 = VERTEX_POINT ( 'NONE', #52 ) ;
#265 = DATE_AND_TIME ( #175, #99 ) ;
#266 = PLANE ( 'NONE',  #67 ) ;
#267 = CYLINDRICAL_SURFACE ( 'NONE', #283, 0.6234999999999997211 ) ;
#268 = APPROVAL_ROLE ( '' ) ;
#269 = DIRECTION ( 'NONE',  ( -4.275831445896957731E-31, -1.000000000000000000, -1.224646799147352961E-16 ) ) ;
#270 = APPROVAL_PERSON_ORGANIZATION ( #100, #219, #285 ) ;
#271 = CARTESIAN_POINT ( 'NONE',  ( 1.326762908760390423E-13, 8.998558695971099120E-33, 38.00000000000000000 ) ) ;
#272 = EDGE_LOOP ( 'NONE', ( #91 ) ) ;
#273 = PRODUCT_RELATED_PRODUCT_CATEGORY ( 'detail', '', ( #301 ) ) ;
#274 = AXIS2_PLACEMENT_3D ( 'NONE', #198, #31, #76 ) ;
#275 = EDGE_LOOP ( 'NONE', ( #258 ) ) ;
#276 = EDGE_CURVE ( 'NONE', #158, #158, #294, .T. ) ;
#277 = AXIS2_PLACEMENT_3D ( 'NONE', #15, #106, #136 ) ;
#278 = DIRECTION ( 'NONE',  ( 4.275831445896957731E-31, 1.000000000000000000, 1.224646799147352961E-16 ) ) ;
#279 = ORGANIZATION ( 'UNSPECIFIED', 'UNSPECIFIED', '' ) ;
#280 = EDGE_LOOP ( 'NONE', ( #19 ) ) ;
#281 = DIRECTION ( 'NONE',  ( -3.491481338843133355E-15, 1.224646799147352961E-16, -1.000000000000000000 ) ) ;
#282 = CARTESIAN_POINT ( 'NONE',  ( -3.941553623825401164E-31, 1.382510906011259915E-32, -1.128905825723643703E-16 ) ) ;
#283 = AXIS2_PLACEMENT_3D ( 'NONE', #6, #203, #10 ) ;
#284 = DIRECTION ( 'NONE',  ( -3.491481338843133355E-15, 1.224646799147352961E-16, -1.000000000000000000 ) ) ;
#285 = APPROVAL_ROLE ( '' ) ;
#286 = DIRECTION ( 'NONE',  ( 0.0000000000000000000, 1.000000000000000000, 0.0000000000000000000 ) ) ;
#287 = CARTESIAN_POINT ( 'NONE',  ( 2.172598189788212001E-14, -7.620448631236423364E-16, 6.222568528772605134 ) ) ;
#288 = CARTESIAN_POINT ( 'NONE',  ( 6.590036799080177965E-14, -2.311473752550794145E-15, 18.87461555576785699 ) ) ;
#289 = CIRCLE ( 'NONE', #30, 1.200000000000003286 ) ;
#290 = CARTESIAN_POINT ( 'NONE',  ( 1.316288464743861212E-13, -4.616918432785520292E-15, 37.69999999999999574 ) ) ;
#291 = FACE_OUTER_BOUND ( 'NONE', #37, .T. ) ;
#292 = APPROVAL ( #83, 'UNSPECIFIED' ) ;
#293 = ORIENTED_EDGE ( 'NONE', *, *, #239, .T. ) ;
#294 = CIRCLE ( 'NONE', #126, 0.6234999999999992770 ) ;
#295 = CARTESIAN_POINT ( 'NONE',  ( 4.660183614865709749E-14, 0.5253844939755805132, 13.34729635533384773 ) ) ;
#296 = AXIS2_PLACEMENT_3D ( 'NONE', #290, #111, #208 ) ;
#297 = ORIENTED_EDGE ( 'NONE', *, *, #71, .F. ) ;
#298 = FACE_BOUND ( 'NONE', #121, .T. ) ;
#299 = ADVANCED_FACE ( 'NONE', ( #184, #247 ), #221, .F. ) ;
#300 = MANIFOLD_SOLID_BREP ( 'Corps-Déplacer/Copier1[1]', #110 ) ;
#301 = PRODUCT ( '968607', '968607', '', ( #51 ) ) ;
#302 = PERSON_AND_ORGANIZATION_ROLE ( 'creator' ) ;
#303 = ADVANCED_FACE ( 'NONE', ( #161, #173 ), #241, .T. ) ;
ENDSEC;
END-ISO-10303-21;
