ISO-10303-21;
HEADER;
FILE_DESCRIPTION (( 'STEP AP203' ),
    '1' );
FILE_NAME ('968606.step',
    '2021-11-29T14:49:41',
    ( '' ),
    ( '' ),
    'SwSTEP 2.0',
    'SolidWorks 2019',
    '' );
FILE_SCHEMA (( 'CONFIG_CONTROL_DESIGN' ));
ENDSEC;

DATA;
#1 = CC_DESIGN_DATE_AND_TIME_ASSIGNMENT ( #260, #57, ( #31 ) ) ;
#2 = CIRCLE ( 'NONE', #209, 0.6185000000000000497 ) ;
#3 = EDGE_LOOP ( 'NONE', ( #136 ) ) ;
#4 = COORDINATED_UNIVERSAL_TIME_OFFSET ( 1, 0, .AHEAD. ) ;
#5 = PRODUCT_RELATED_PRODUCT_CATEGORY ( 'detail', '', ( #143 ) ) ;
#6 = PERSON ( 'UNSPECIFIED', 'UNSPECIFIED', 'UNSPECIFIED', ('UNSPECIFIED'), ('UNSPECIFIED'), ('UNSPECIFIED') ) ;
#7 = EDGE_LOOP ( 'NONE', ( #256 ) ) ;
#8 = DIRECTION ( 'NONE',  ( 0.0000000000000000000, 0.0000000000000000000, 1.000000000000000000 ) ) ;
#9 = EDGE_LOOP ( 'NONE', ( #226 ) ) ;
#10 = AXIS2_PLACEMENT_3D ( 'NONE', #229, #8, #27 ) ;
#11 = PERSON_AND_ORGANIZATION ( #6, #228 ) ;
#12 = APPROVAL ( #255, 'UNSPECIFIED' ) ;
#13 = FACE_OUTER_BOUND ( 'NONE', #50, .T. ) ;
#14 = PERSON_AND_ORGANIZATION ( #6, #228 ) ;
#15 = FACE_OUTER_BOUND ( 'NONE', #207, .T. ) ;
#16 = APPROVAL_DATE_TIME ( #35, #127 ) ;
#17 = DIRECTION ( 'NONE',  ( 4.275831445896957731E-31, 1.000000000000000000, 1.224646799147353207E-16 ) ) ;
#18 = CC_DESIGN_APPROVAL ( #12, ( #116 ) ) ;
#19 = CARTESIAN_POINT ( 'NONE',  ( 1.326762908760390423E-13, -4.653657836759941152E-15, 38.00000000000000000 ) ) ;
#20 = FACE_OUTER_BOUND ( 'NONE', #88, .T. ) ;
#21 = DIRECTION ( 'NONE',  ( -3.491481338843133355E-15, 1.224646799147352961E-16, -1.000000000000000000 ) ) ;
#22 = AXIS2_PLACEMENT_3D ( 'NONE', #217, #120, #17 ) ;
#23 = ADVANCED_FACE ( 'NONE', ( #250, #48 ), #119, .T. ) ;
#24 = DIRECTION ( 'NONE',  ( -3.491481338843133355E-15, 1.224646799147352961E-16, -1.000000000000000000 ) ) ;
#25 = VERTEX_POINT ( 'NONE', #223 ) ;
#26 = CARTESIAN_POINT ( 'NONE',  ( 1.316288464743861212E-13, 1.499999999999998668, 37.69999999999999574 ) ) ;
#27 = DIRECTION ( 'NONE',  ( 1.000000000000000000, 0.0000000000000000000, 0.0000000000000000000 ) ) ;
#28 = EDGE_LOOP ( 'NONE', ( #158 ) ) ;
#29 = ORIENTED_EDGE ( 'NONE', *, *, #266, .F. ) ;
#30 = DATE_AND_TIME ( #114, #101 ) ;
#31 = SECURITY_CLASSIFICATION ( '', '', #115 ) ;
#32 = APPROVAL_DATE_TIME ( #234, #12 ) ;
#33 = DESIGN_CONTEXT ( 'detailed design', #201, 'design' ) ;
#34 = DIRECTION ( 'NONE',  ( -3.113872181709358241E-31, -1.000000000000000000, -8.764770998266011992E-17 ) ) ;
#35 = DATE_AND_TIME ( #281, #121 ) ;
#36 = FACE_BOUND ( 'NONE', #73, .T. ) ;
#37 = ADVANCED_FACE ( 'NONE', ( #293 ), #170, .F. ) ;
#38 = CARTESIAN_POINT ( 'NONE',  ( 2.094888803305880013E-14, 4.638007127881781433E-33, 6.000000000000000000 ) ) ;
#39 = CIRCLE ( 'NONE', #56, 0.6185000000000000497 ) ;
#40 = CARTESIAN_POINT ( 'NONE',  ( 2.094888803305880013E-14, 4.638007127881781433E-33, 6.000000000000000000 ) ) ;
#41 = DIRECTION ( 'NONE',  ( -3.491481338843133355E-15, 1.224646799147352961E-16, -1.000000000000000000 ) ) ;
#42 = CARTESIAN_POINT ( 'NONE',  ( 4.538925740496072731E-14, 0.4949999999999984968, 12.99999999999999822 ) ) ;
#43 = AXIS2_PLACEMENT_3D ( 'NONE', #242, #118, #145 ) ;
#44 = CARTESIAN_POINT ( 'NONE',  ( 4.660183614865709749E-14, 0.5253844939755809573, 13.34729635533384773 ) ) ;
#45 = ADVANCED_FACE ( 'NONE', ( #141, #36 ), #283, .T. ) ;
#46 = CARTESIAN_POINT ( 'NONE',  ( 2.094888803305880013E-14, 0.6184999999999992726, 6.000000000000000000 ) ) ;
#47 = CIRCLE ( 'NONE', #192, 1.200000000000003286 ) ;
#48 = FACE_OUTER_BOUND ( 'NONE', #28, .T. ) ;
#49 = ADVANCED_FACE ( 'NONE', ( #20 ), #290, .F. ) ;
#50 = EDGE_LOOP ( 'NONE', ( #187 ) ) ;
#51 = AXIS2_PLACEMENT_3D ( 'NONE', #173, #21, #84 ) ;
#52 = ORIENTED_EDGE ( 'NONE', *, *, #288, .F. ) ;
#53 = ORIENTED_EDGE ( 'NONE', *, *, #294, .T. ) ;
#54 = EDGE_LOOP ( 'NONE', ( #71 ) ) ;
#55 = DIRECTION ( 'NONE',  ( -3.491481338843133355E-15, 1.224646799147352961E-16, -1.000000000000000000 ) ) ;
#56 = AXIS2_PLACEMENT_3D ( 'NONE', #126, #24, #154 ) ;
#57 = DATE_TIME_ROLE ( 'classification_date' ) ;
#58 = CARTESIAN_POINT ( 'NONE',  ( -3.920174466595916888E-31, 1.375012107097950846E-32, -1.122782591727907320E-16 ) ) ;
#59 = DIRECTION ( 'NONE',  ( 3.113872181709358241E-31, 1.000000000000000000, 8.764770998266011992E-17 ) ) ;
#60 = DIRECTION ( 'NONE',  ( 0.0000000000000000000, 1.000000000000000000, 0.0000000000000000000 ) ) ;
#61 =( GEOMETRIC_REPRESENTATION_CONTEXT ( 3 ) GLOBAL_UNCERTAINTY_ASSIGNED_CONTEXT ( ( #140 ) ) GLOBAL_UNIT_ASSIGNED_CONTEXT ( ( #179, #219, #67 ) ) REPRESENTATION_CONTEXT ( 'NONE', 'WORKASPACE' ) );
#62 = DIRECTION ( 'NONE',  ( 0.0000000000000000000, -1.000000000000000000, 0.0000000000000000000 ) ) ;
#63 = ADVANCED_FACE ( 'NONE', ( #147, #123 ), #96, .T. ) ;
#64 = DIRECTION ( 'NONE',  ( -3.491481338843133355E-15, 1.224646799147352961E-16, -1.000000000000000000 ) ) ;
#65 = VERTEX_POINT ( 'NONE', #46 ) ;
#66 = CC_DESIGN_DATE_AND_TIME_ASSIGNMENT ( #292, #133, ( #279 ) ) ;
#67 =( NAMED_UNIT ( * ) SI_UNIT ( $, .STERADIAN. ) SOLID_ANGLE_UNIT ( ) );
#68 = CARTESIAN_POINT ( 'NONE',  ( 8.728703347107833388E-16, 0.6184999999999992726, 0.2500000000000000000 ) ) ;
#69 = CC_DESIGN_SECURITY_CLASSIFICATION ( #31, ( #116 ) ) ;
#70 = EDGE_LOOP ( 'NONE', ( #117 ) ) ;
#71 = ORIENTED_EDGE ( 'NONE', *, *, #237, .T. ) ;
#72 = AXIS2_PLACEMENT_3D ( 'NONE', #298, #124, #252 ) ;
#73 = EDGE_LOOP ( 'NONE', ( #253 ) ) ;
#74 = CALENDAR_DATE ( 2021, 29, 11 ) ;
#75 = FACE_BOUND ( 'NONE', #227, .T. ) ;
#76 = CALENDAR_DATE ( 2021, 29, 11 ) ;
#77 = CARTESIAN_POINT ( 'NONE',  ( 6.590036799080176703E-14, -2.311473752550793751E-15, 18.87461555576785344 ) ) ;
#78 = PERSON_AND_ORGANIZATION ( #6, #228 ) ;
#79 = DIRECTION ( 'NONE',  ( -3.491481338843133355E-15, 1.224646799147352961E-16, -1.000000000000000000 ) ) ;
#80 = DIRECTION ( 'NONE',  ( 3.491481338843133355E-15, -1.224646799147352961E-16, 1.000000000000000000 ) ) ;
#81 = FACE_OUTER_BOUND ( 'NONE', #135, .T. ) ;
#82 = CC_DESIGN_PERSON_AND_ORGANIZATION_ASSIGNMENT ( #14, #284, ( #116 ) ) ;
#83 = LOCAL_TIME ( 15, 49, 41.00000000000000000, #4 ) ;
#84 = DIRECTION ( 'NONE',  ( 4.275831445896957731E-31, 1.000000000000000000, 1.224646799147352961E-16 ) ) ;
#85 = DIRECTION ( 'NONE',  ( 0.0000000000000000000, 1.000000000000000000, 0.0000000000000000000 ) ) ;
#86 = AXIS2_PLACEMENT_3D ( 'NONE', #238, #194, #287 ) ;
#87 = VERTEX_POINT ( 'NONE', #197 ) ;
#88 = EDGE_LOOP ( 'NONE', ( #131 ) ) ;
#89 = CONICAL_SURFACE ( 'NONE', #245, 1.200000000000003286, 0.7853981633974453924 ) ;
#90 = APPROVAL_ROLE ( '' ) ;
#91 = APPLICATION_CONTEXT ( 'configuration controlled 3d designs of mechanical parts and assemblies' ) ;
#92 = ORIENTED_EDGE ( 'NONE', *, *, #162, .F. ) ;
#93 = PERSON_AND_ORGANIZATION ( #6, #228 ) ;
#94 = AXIS2_PLACEMENT_3D ( 'NONE', #262, #240, #295 ) ;
#95 = EDGE_LOOP ( 'NONE', ( #132 ) ) ;
#96 = CYLINDRICAL_SURFACE ( 'NONE', #22, 1.500000000000000444 ) ;
#97 = PERSON_AND_ORGANIZATION ( #6, #228 ) ;
#98 = FACE_OUTER_BOUND ( 'NONE', #9, .T. ) ;
#99 = APPLICATION_PROTOCOL_DEFINITION ( 'international standard', 'config_control_design', 1994, #201 ) ;
#100 = DIRECTION ( 'NONE',  ( 3.491481338843133355E-15, -1.224646799147352961E-16, 1.000000000000000000 ) ) ;
#101 = LOCAL_TIME ( 15, 49, 41.00000000000000000, #286 ) ;
#102 = PLANE ( 'NONE',  #86 ) ;
#103 = CC_DESIGN_PERSON_AND_ORGANIZATION_ASSIGNMENT ( #258, #163, ( #116 ) ) ;
#104 = CARTESIAN_POINT ( 'NONE',  ( 6.590036799080176703E-14, -2.311473752550793751E-15, 18.87461555576785344 ) ) ;
#105 = CARTESIAN_POINT ( 'NONE',  ( 1.326762908760390423E-13, -4.653657836759941152E-15, 38.00000000000000000 ) ) ;
#106 = AXIS2_PLACEMENT_3D ( 'NONE', #210, #41, #59 ) ;
#107 = DIRECTION ( 'NONE',  ( -3.491481338843133355E-15, 1.224646799147352961E-16, -1.000000000000000000 ) ) ;
#108 = DIRECTION ( 'NONE',  ( -3.491481338843133355E-15, 1.224646799147352961E-16, -1.000000000000000000 ) ) ;
#109 = DIRECTION ( 'NONE',  ( 0.0000000000000000000, 1.000000000000000000, 0.0000000000000000000 ) ) ;
#110 = CIRCLE ( 'NONE', #302, 0.4741624327025949492 ) ;
#111 = CARTESIAN_POINT ( 'NONE',  ( 2.094888803305880013E-14, -7.347880794884118750E-16, 6.000000000000000000 ) ) ;
#112 = AXIS2_PLACEMENT_3D ( 'NONE', #77, #218, #85 ) ;
#113 = ORIENTED_EDGE ( 'NONE', *, *, #174, .F. ) ;
#114 = CALENDAR_DATE ( 2021, 29, 11 ) ;
#115 = SECURITY_CLASSIFICATION_LEVEL ( 'unclassified' ) ;
#116 = PRODUCT_DEFINITION_FORMATION_WITH_SPECIFIED_SOURCE ( 'ANY', '', #143, .NOT_KNOWN. ) ;
#117 = ORIENTED_EDGE ( 'NONE', *, *, #237, .F. ) ;
#118 = DIRECTION ( 'NONE',  ( -3.491481338843133355E-15, 1.224646799147352961E-16, -1.000000000000000000 ) ) ;
#119 = CYLINDRICAL_SURFACE ( 'NONE', #94, 0.6184999999999997167 ) ;
#120 = DIRECTION ( 'NONE',  ( -3.491481338843133355E-15, 1.224646799147352961E-16, -1.000000000000000000 ) ) ;
#121 = LOCAL_TIME ( 15, 49, 41.00000000000000000, #213 ) ;
#122 = EDGE_CURVE ( 'NONE', #275, #275, #181, .T. ) ;
#123 = FACE_OUTER_BOUND ( 'NONE', #203, .T. ) ;
#124 = DIRECTION ( 'NONE',  ( -3.491481338843133355E-15, 1.224646799147352961E-16, -1.000000000000000000 ) ) ;
#125 = AXIS2_PLACEMENT_3D ( 'NONE', #259, #235, #34 ) ;
#126 = CARTESIAN_POINT ( 'NONE',  ( 2.094888803305880013E-14, -7.347880794884118750E-16, 6.000000000000000000 ) ) ;
#127 = APPROVAL ( #159, 'UNSPECIFIED' ) ;
#128 = CYLINDRICAL_SURFACE ( 'NONE', #72, 0.4949999999999995515 ) ;
#129 = CLOSED_SHELL ( 'NONE', ( #49, #45, #261, #208, #146, #63, #299, #191 ) ) ;
#130 = CC_DESIGN_PERSON_AND_ORGANIZATION_ASSIGNMENT ( #11, #289, ( #143 ) ) ;
#131 = ORIENTED_EDGE ( 'NONE', *, *, #266, .T. ) ;
#132 = ORIENTED_EDGE ( 'NONE', *, *, #178, .F. ) ;
#133 = DATE_TIME_ROLE ( 'creation_date' ) ;
#134 = LOCAL_TIME ( 15, 49, 41.00000000000000000, #161 ) ;
#135 = EDGE_LOOP ( 'NONE', ( #180 ) ) ;
#136 = ORIENTED_EDGE ( 'NONE', *, *, #174, .T. ) ;
#137 = PERSON_AND_ORGANIZATION ( #6, #228 ) ;
#138 = ORIENTED_EDGE ( 'NONE', *, *, #122, .T. ) ;
#139 = PRODUCT_DEFINITION_SHAPE ( 'NONE', 'NONE',  #279 ) ;
#140 = UNCERTAINTY_MEASURE_WITH_UNIT (LENGTH_MEASURE( 1.000000000000000082E-05 ), #179, 'distance_accuracy_value', 'NONE');
#141 = FACE_OUTER_BOUND ( 'NONE', #280, .T. ) ;
#142 = PERSON_AND_ORGANIZATION_ROLE ( 'creator' ) ;
#143 = PRODUCT ( '968606', '968606', '', ( #190 ) ) ;
#144 = FACE_BOUND ( 'NONE', #95, .T. ) ;
#145 = DIRECTION ( 'NONE',  ( 0.0000000000000000000, 1.000000000000000000, 0.0000000000000000000 ) ) ;
#146 = ADVANCED_FACE ( 'NONE', ( #144, #189 ), #153, .T. ) ;
#147 = FACE_OUTER_BOUND ( 'NONE', #70, .T. ) ;
#148 = MANIFOLD_SOLID_BREP ( 'Corps-Déplacer/Copier1[1]', #129 ) ;
#149 = AXIS2_PLACEMENT_3D ( 'NONE', #152, #64, #109 ) ;
#150 = DIRECTION ( 'NONE',  ( -3.491481338843133355E-15, 1.224646799147352961E-16, -1.000000000000000000 ) ) ;
#151 = CARTESIAN_POINT ( 'NONE',  ( 1.326762908760390423E-13, 1.199999999999998845, 38.00000000000000000 ) ) ;
#152 = CARTESIAN_POINT ( 'NONE',  ( 2.169574478251934812E-14, -7.609842878849174894E-16, 6.213908274734761150 ) ) ;
#153 = CONICAL_SURFACE ( 'NONE', #268, 1.499999999999997780, 0.1745329251994260089 ) ;
#154 = DIRECTION ( 'NONE',  ( 0.0000000000000000000, 1.000000000000000000, 0.0000000000000000000 ) ) ;
#155 = APPLICATION_PROTOCOL_DEFINITION ( 'international standard', 'config_control_design', 1994, #91 ) ;
#156 = APPROVAL ( #211, 'UNSPECIFIED' ) ;
#157 = APPROVAL_PERSON_ORGANIZATION ( #137, #12, #232 ) ;
#158 = ORIENTED_EDGE ( 'NONE', *, *, #241, .T. ) ;
#159 = APPROVAL_STATUS ( 'not_yet_approved' ) ;
#160 = CIRCLE ( 'NONE', #112, 1.499999999999997780 ) ;
#161 = COORDINATED_UNIVERSAL_TIME_OFFSET ( 1, 0, .AHEAD. ) ;
#162 = EDGE_CURVE ( 'NONE', #271, #271, #297, .T. ) ;
#163 = PERSON_AND_ORGANIZATION_ROLE ( 'design_supplier' ) ;
#164 = FACE_OUTER_BOUND ( 'NONE', #7, .T. ) ;
#165 = PERSON_AND_ORGANIZATION ( #6, #228 ) ;
#166 = AXIS2_PLACEMENT_3D ( 'NONE', #224, #243, #274 ) ;
#167 = DIRECTION ( 'NONE',  ( 3.491481338843133355E-15, -1.224646799147352961E-16, 1.000000000000000000 ) ) ;
#168 = APPROVAL_ROLE ( '' ) ;
#169 = CARTESIAN_POINT ( 'NONE',  ( 1.316288464743861212E-13, -4.616918432785520292E-15, 37.69999999999999574 ) ) ;
#170 = PLANE ( 'NONE',  #267 ) ;
#171 = PLANE ( 'NONE',  #276 ) ;
#172 = AXIS2_PLACEMENT_3D ( 'NONE', #40, #167, #195 ) ;
#173 = CARTESIAN_POINT ( 'NONE',  ( 4.538925740496073362E-14, -1.734723475976807094E-15, 13.00000000000000000 ) ) ;
#174 = EDGE_CURVE ( 'NONE', #301, #301, #110, .T. ) ;
#175 = VERTEX_POINT ( 'NONE', #151 ) ;
#176 = LOCAL_TIME ( 15, 49, 41.00000000000000000, #236 ) ;
#177 = CARTESIAN_POINT ( 'NONE',  ( -1.892735826383161356E-31, 0.4741624327025949492, -5.421010862427522170E-17 ) ) ;
#178 = EDGE_CURVE ( 'NONE', #300, #300, #205, .T. ) ;
#179 =( LENGTH_UNIT ( ) NAMED_UNIT ( * ) SI_UNIT ( .MILLI., .METRE. ) );
#180 = ORIENTED_EDGE ( 'NONE', *, *, #241, .F. ) ;
#181 = CIRCLE ( 'NONE', #248, 1.500000000000003331 ) ;
#182 = EDGE_LOOP ( 'NONE', ( #53 ) ) ;
#183 = ADVANCED_FACE ( 'NONE', ( #81 ), #171, .T. ) ;
#184 = CALENDAR_DATE ( 2021, 29, 11 ) ;
#185 = TOROIDAL_SURFACE ( 'NONE', #51, 2.495000000000000107, 1.999999999999999556 ) ;
#186 = EDGE_CURVE ( 'NONE', #175, #175, #47, .T. ) ;
#187 = ORIENTED_EDGE ( 'NONE', *, *, #186, .F. ) ;
#188 = SHAPE_DEFINITION_REPRESENTATION ( #139, #263 ) ;
#189 = FACE_OUTER_BOUND ( 'NONE', #54, .T. ) ;
#190 = MECHANICAL_CONTEXT ( 'NONE', #91, 'mechanical' ) ;
#191 = ADVANCED_FACE ( 'NONE', ( #13 ), #102, .F. ) ;
#192 = AXIS2_PLACEMENT_3D ( 'NONE', #19, #150, #212 ) ;
#193 = DIRECTION ( 'NONE',  ( 4.275831445896957731E-31, 1.000000000000000000, 1.224646799147352961E-16 ) ) ;
#194 = DIRECTION ( 'NONE',  ( -3.491481338843133355E-15, 1.224646799147352961E-16, -1.000000000000000000 ) ) ;
#195 = DIRECTION ( 'NONE',  ( -4.275831445896957731E-31, -1.000000000000000000, -1.224646799147352961E-16 ) ) ;
#196 = CLOSED_SHELL ( 'NONE', ( #37, #204, #23, #183 ) ) ;
#197 = CARTESIAN_POINT ( 'NONE',  ( 2.094888803305880013E-14, 0.6184999999999992726, 6.000000000000000000 ) ) ;
#198 = CC_DESIGN_APPROVAL ( #127, ( #31 ) ) ;
#199 = DIRECTION ( 'NONE',  ( 0.0000000000000000000, 1.000000000000000000, 0.0000000000000000000 ) ) ;
#200 = FACE_OUTER_BOUND ( 'NONE', #231, .T. ) ;
#201 = APPLICATION_CONTEXT ( 'configuration controlled 3d designs of mechanical parts and assemblies' ) ;
#202 = CARTESIAN_POINT ( 'NONE',  ( 6.590036799080176703E-14, 1.499999999999995559, 18.87461555576785344 ) ) ;
#203 = EDGE_LOOP ( 'NONE', ( #138 ) ) ;
#204 = ADVANCED_FACE ( 'NONE', ( #75, #164 ), #254, .T. ) ;
#205 = CIRCLE ( 'NONE', #43, 0.5253844939755826227 ) ;
#206 = APPROVAL_DATE_TIME ( #30, #156 ) ;
#207 = EDGE_LOOP ( 'NONE', ( #230 ) ) ;
#208 = ADVANCED_FACE ( 'NONE', ( #15, #98 ), #185, .F. ) ;
#209 = AXIS2_PLACEMENT_3D ( 'NONE', #111, #108, #199 ) ;
#210 = CARTESIAN_POINT ( 'NONE',  ( 8.728703347107831416E-16, -3.061616997868381785E-17, 0.2499999999999999445 ) ) ;
#211 = APPROVAL_STATUS ( 'not_yet_approved' ) ;
#212 = DIRECTION ( 'NONE',  ( 0.0000000000000000000, 1.000000000000000000, 0.0000000000000000000 ) ) ;
#213 = COORDINATED_UNIVERSAL_TIME_OFFSET ( 1, 0, .AHEAD. ) ;
#214 = CARTESIAN_POINT ( 'NONE',  ( -1.960087233297958444E-31, 6.875060535489754231E-33, -5.613912958639536601E-17 ) ) ;
#215 = APPROVAL_PERSON_ORGANIZATION ( #93, #127, #90 ) ;
#216 = DIRECTION ( 'NONE',  ( -4.275831445896957731E-31, -1.000000000000000000, -1.224646799147352961E-16 ) ) ;
#217 = CARTESIAN_POINT ( 'NONE',  ( 0.0000000000000000000, 0.0000000000000000000, 0.0000000000000000000 ) ) ;
#218 = DIRECTION ( 'NONE',  ( -3.491481338843133355E-15, 1.224646799147352961E-16, -1.000000000000000000 ) ) ;
#219 =( NAMED_UNIT ( * ) PLANE_ANGLE_UNIT ( ) SI_UNIT ( $, .RADIAN. ) );
#220 = CIRCLE ( 'NONE', #166, 0.4950000000000001066 ) ;
#221 = DIRECTION ( 'NONE',  ( 0.0000000000000000000, 1.000000000000000000, 0.0000000000000000000 ) ) ;
#222 = CC_DESIGN_PERSON_AND_ORGANIZATION_ASSIGNMENT ( #78, #142, ( #279 ) ) ;
#223 = CARTESIAN_POINT ( 'NONE',  ( 2.169574478251934812E-14, 0.4949999999999983857, 6.213908274734761150 ) ) ;
#224 = CARTESIAN_POINT ( 'NONE',  ( 4.538925740496072731E-14, -1.592040838891558504E-15, 12.99999999999999822 ) ) ;
#225 = APPROVAL_PERSON_ORGANIZATION ( #165, #156, #168 ) ;
#226 = ORIENTED_EDGE ( 'NONE', *, *, #178, .T. ) ;
#227 = EDGE_LOOP ( 'NONE', ( #113 ) ) ;
#228 = ORGANIZATION ( 'UNSPECIFIED', 'UNSPECIFIED', '' ) ;
#229 = CARTESIAN_POINT ( 'NONE',  ( 0.0000000000000000000, 0.0000000000000000000, 0.0000000000000000000 ) ) ;
#230 = ORIENTED_EDGE ( 'NONE', *, *, #294, .F. ) ;
#231 = EDGE_LOOP ( 'NONE', ( #52 ) ) ;
#232 = APPROVAL_ROLE ( '' ) ;
#233 = AXIS2_PLACEMENT_3D ( 'NONE', #265, #55, #60 ) ;
#234 = DATE_AND_TIME ( #184, #134 ) ;
#235 = DIRECTION ( 'NONE',  ( 3.491481338843133355E-15, -1.224646799147352961E-16, 1.000000000000000000 ) ) ;
#236 = COORDINATED_UNIVERSAL_TIME_OFFSET ( 1, 0, .AHEAD. ) ;
#237 = EDGE_CURVE ( 'NONE', #272, #272, #160, .T. ) ;
#238 = CARTESIAN_POINT ( 'NONE',  ( 1.326762908760390423E-13, 8.998558695971099120E-33, 38.00000000000000000 ) ) ;
#239 = DIRECTION ( 'NONE',  ( -4.275831445896957731E-31, -1.000000000000000000, -1.224646799147352961E-16 ) ) ;
#240 = DIRECTION ( 'NONE',  ( -3.491481338843133355E-15, 1.224646799147352961E-16, -1.000000000000000000 ) ) ;
#241 = EDGE_CURVE ( 'NONE', #87, #87, #39, .T. ) ;
#242 = CARTESIAN_POINT ( 'NONE',  ( 4.660183614865709749E-14, -1.634572375883072611E-15, 13.34729635533384773 ) ) ;
#243 = DIRECTION ( 'NONE',  ( -3.491481338843133355E-15, 1.224646799147352961E-16, -1.000000000000000000 ) ) ;
#244 = FACE_OUTER_BOUND ( 'NONE', #251, .T. ) ;
#245 = AXIS2_PLACEMENT_3D ( 'NONE', #105, #107, #221 ) ;
#246 = VERTEX_POINT ( 'NONE', #42 ) ;
#247 = MANIFOLD_SOLID_BREP ( 'Corps-Déplacer/Copier1[2]', #196 ) ;
#248 = AXIS2_PLACEMENT_3D ( 'NONE', #169, #79, #264 ) ;
#249 = CC_DESIGN_PERSON_AND_ORGANIZATION_ASSIGNMENT ( #97, #257, ( #31 ) ) ;
#250 = FACE_OUTER_BOUND ( 'NONE', #285, .T. ) ;
#251 = EDGE_LOOP ( 'NONE', ( #278 ) ) ;
#252 = DIRECTION ( 'NONE',  ( 4.275831445896957731E-31, 1.000000000000000000, 1.224646799147353207E-16 ) ) ;
#253 = ORIENTED_EDGE ( 'NONE', *, *, #288, .T. ) ;
#254 = CONICAL_SURFACE ( 'NONE', #125, 0.6184999999999992726, 0.5235987755982924874 ) ;
#255 = APPROVAL_STATUS ( 'not_yet_approved' ) ;
#256 = ORIENTED_EDGE ( 'NONE', *, *, #162, .T. ) ;
#257 = PERSON_AND_ORGANIZATION_ROLE ( 'classification_officer' ) ;
#258 = PERSON_AND_ORGANIZATION ( #6, #228 ) ;
#259 = CARTESIAN_POINT ( 'NONE',  ( 8.728703347107831416E-16, -3.061616997868381785E-17, 0.2499999999999999445 ) ) ;
#260 = DATE_AND_TIME ( #74, #176 ) ;
#261 = ADVANCED_FACE ( 'NONE', ( #200, #270 ), #128, .T. ) ;
#262 = CARTESIAN_POINT ( 'NONE',  ( 0.0000000000000000000, 0.0000000000000000000, 0.0000000000000000000 ) ) ;
#263 = ADVANCED_BREP_SHAPE_REPRESENTATION ( '968606', ( #148, #247, #10 ), #61 ) ;
#264 = DIRECTION ( 'NONE',  ( 0.0000000000000000000, 1.000000000000000000, 0.0000000000000000000 ) ) ;
#265 = CARTESIAN_POINT ( 'NONE',  ( 2.169574478251934812E-14, -7.609842878849174894E-16, 6.213908274734761150 ) ) ;
#266 = EDGE_CURVE ( 'NONE', #65, #65, #2, .T. ) ;
#267 = AXIS2_PLACEMENT_3D ( 'NONE', #214, #100, #239 ) ;
#268 = AXIS2_PLACEMENT_3D ( 'NONE', #104, #80, #62 ) ;
#269 = DIRECTION ( 'NONE',  ( 3.491481338843133355E-15, -1.224646799147352961E-16, 1.000000000000000000 ) ) ;
#270 = FACE_OUTER_BOUND ( 'NONE', #182, .T. ) ;
#271 = VERTEX_POINT ( 'NONE', #68 ) ;
#272 = VERTEX_POINT ( 'NONE', #202 ) ;
#273 = CC_DESIGN_APPROVAL ( #156, ( #279 ) ) ;
#274 = DIRECTION ( 'NONE',  ( 0.0000000000000000000, 1.000000000000000000, 0.0000000000000000000 ) ) ;
#275 = VERTEX_POINT ( 'NONE', #26 ) ;
#276 = AXIS2_PLACEMENT_3D ( 'NONE', #38, #269, #216 ) ;
#277 = EDGE_LOOP ( 'NONE', ( #282 ) ) ;
#278 = ORIENTED_EDGE ( 'NONE', *, *, #122, .F. ) ;
#279 = PRODUCT_DEFINITION ( 'UNKNOWN', '', #116, #33 ) ;
#280 = EDGE_LOOP ( 'NONE', ( #29 ) ) ;
#281 = CALENDAR_DATE ( 2021, 29, 11 ) ;
#282 = ORIENTED_EDGE ( 'NONE', *, *, #186, .T. ) ;
#283 = CONICAL_SURFACE ( 'NONE', #233, 0.4949999999999991074, 0.5235987755982933756 ) ;
#284 = PERSON_AND_ORGANIZATION_ROLE ( 'creator' ) ;
#285 = EDGE_LOOP ( 'NONE', ( #92 ) ) ;
#286 = COORDINATED_UNIVERSAL_TIME_OFFSET ( 1, 0, .AHEAD. ) ;
#287 = DIRECTION ( 'NONE',  ( 4.275831445896957731E-31, 1.000000000000000000, 1.224646799147352961E-16 ) ) ;
#288 = EDGE_CURVE ( 'NONE', #25, #25, #291, .T. ) ;
#289 = PERSON_AND_ORGANIZATION_ROLE ( 'design_owner' ) ;
#290 = PLANE ( 'NONE',  #172 ) ;
#291 = CIRCLE ( 'NONE', #149, 0.4949999999999991074 ) ;
#292 = DATE_AND_TIME ( #76, #83 ) ;
#293 = FACE_OUTER_BOUND ( 'NONE', #3, .T. ) ;
#294 = EDGE_CURVE ( 'NONE', #246, #246, #220, .T. ) ;
#295 = DIRECTION ( 'NONE',  ( 4.275831445896956855E-31, 1.000000000000000000, 1.224646799147352714E-16 ) ) ;
#296 = DIRECTION ( 'NONE',  ( -3.491481338843133355E-15, 1.224646799147352961E-16, -1.000000000000000000 ) ) ;
#297 = CIRCLE ( 'NONE', #106, 0.6184999999999992726 ) ;
#298 = CARTESIAN_POINT ( 'NONE',  ( 0.0000000000000000000, 0.0000000000000000000, 0.0000000000000000000 ) ) ;
#299 = ADVANCED_FACE ( 'NONE', ( #244, #303 ), #89, .T. ) ;
#300 = VERTEX_POINT ( 'NONE', #44 ) ;
#301 = VERTEX_POINT ( 'NONE', #177 ) ;
#302 = AXIS2_PLACEMENT_3D ( 'NONE', #58, #296, #193 ) ;
#303 = FACE_BOUND ( 'NONE', #277, .T. ) ;
ENDSEC;
END-ISO-10303-21;
